Oops, an error
Loading. Please wait.

Intervention Tab

ver2
ver2

Whole song

More versions @911Tabs.com
547 views 3 this week
no commentswrite comment
1 2 3 4 5
excellent!
x 1
Autoscroll
+/-
esc
set tempo
stop
Contributor
Difficulty
Tuning
intermediate
C# G# C# F# A# D#
WARNING: You are trying to view
                                    content from Ultimate-Guitar.com
                                    in an unauthorized application,
                                    which is prohibited.

                                    Please use an official Ultimate
                                    Guitar Tabs application for iPhone,
                                    iPad or Android to access legitimate
                                    chords, guitar, bass, and drum tabs
                                    from Ultimate-Guitar.com database.

                                    Type "ultimate guitar tabs" in Apple
                                    App Store's or Android Market's
                                    search to find the application.
Tabbed by: Joshua Garcia (joshuag523@aol.com)

Tabs for the song: Intervention by Silverstein
Please rate and let me know if you have any corrections. Thank you.


**NOTE - This was taken from my full album tab, which can be found here: 
http://tabs.ultimate-guitar.com/s/silverstein/rescue_album_tab.htm **


Tuning: Drop C# (C# G# C# F# A# D#)



Intro
Guitar 1:
D#||-------------------------------|
A#||-------------------------------|
F#||-------------------------------|
C#||---7~--------------------------|
G#||---7~-----8p7------10p8--------|
C#||---7~---------10p0------10p0---|



Verse
Guitar 1/2:
D#||--------------------------------------------------------------------|
A#||--------------------------------------------------------------------|
F#||--------------------------------------------------------------------|
C#||--------------------------------------------------------------------|
G#||--------8---7---5---7---8---7---------8---7---5---7---8---10-10-10--|
C#||--0-0-0---0---0---0---0---0---0-0-0-0---0---0---0---0---0-----------|
      . . .   .   .   .   .   .   . . . .   .   .   .   .   .


D#||---------------------------------------------------------------------------------------|
A#||---------------------------------------------------------------------------------------|
F#||---------------------------------------------------------------------------------------|
C#||---------------------------------------------------------------------------------------| x2
G#||--------10---8---10---12---10---8--------------12----10----12----13----12----10-10-10--|
C#||--8-8-8----8---8----8----8----8---8-8-10-10-10----10----10----10----10----10-----------|
      . . .    .   .    .    .    .   . . .  .  .     .   .  .    .     .     .



Pre-Chorus
Guitar 1/2:
D#||---------------------------------------|
A#||---------------------------------------|
F#||---------------------------------------|
C#||--0-00-000-8-88-888-5-55-555-7-7777-3--|
G#||--0-00-000-8-88-888-5-55-555-7-7777-3--|
C#||--0-00-000-8-88-888-5-55-555-7-7777-3--|


D#||-----------------------------------|
A#||-----------------------------------|
F#||-----------------------------------|
C#||--0-00-000-8-88-888-5-55-555-7777--|
G#||--0-00-000-8-88-888-5-55-555-7777--|
C#||--0-00-000-8-88-888-5-55-555-7777--|




Chorus
Guitar 1:
D#||------------------------------------------------------------------|
A#||------------------------------------------------------------------|
F#||---------------5--------------------------------------------------|
C#||--7--5-7-5-7-8-----------------5-------5-5-----5-5-7-7-5-5--------|
G#||------------------7--5-7-5-7-8----8--8-----8-8-------------8-8-7--|
C#||------------------------------------------------------------------|
         . . .           . . .

D#||------------------------------------------------------|
A#||------------------------------------------------------|
F#||---------------5--------------------------------------|
C#||--7--5-7-5-7-8-----------------5-------5-5-----5-5-7--|
G#||------------------7--5-7-5-7-8----8--8-----8-8--------|
C#||------------------------------------------------------|
         . . .           . . .


Guitar 2:
D#||--------------------------------------|--------------------------------|
A#||--------------------------------------|--------------------------------|
F#||--7-77-777----------------------------|--7-77-777----------------------|
C#||--7-77-777-5-55-555-8-88-888-888-888--|--7-77-777-5-55-555-8-88-88888--|
G#||--5-55-555-5-55-555-8-88-888-888-888--|--5-55-555-5-55-555-8-88-88888--|
C#||-----------5-55-555-8-88-888-888-888--|-----------5-55-555-8-88-88888--|



Verse
Guitar 1/2:
D#||--------------------------------------------------------------------|
A#||--------------------------------------------------------------------|
F#||--------------------------------------------------------------------|
C#||--------------------------------------------------------------------|
G#||--------8---7---5---7---8---7---------8---7---5---7---8---10-10-10--|
C#||--0-0-0---0---0---0---0---0---0-0-0-0---0---0---0---0---0-----------|
      . . .   .   .   .   .   .   . . . .   .   .   .   .   .


D#||---------------------------------------------------------------------------------------|
A#||---------------------------------------------------------------------------------------|
F#||---------------------------------------------------------------------------------------|
C#||---------------------------------------------------------------------------------------|
G#||--------10---8---10---12---10---8--------------12----10----12----13----12----10-10-10--|
C#||--8-8-8----8---8----8----8----8---8-8-10-10-10----10----10----10----10----10-----------|
      . . .    .   .    .    .    .   . . .  .  .     .   .  .    .     .     .


Guitar 1:
D#||--------------------------------------------------------------------|
A#||--------------------------------------------------------------------|
F#||--------------------------------------------------------------------|
C#||--------------------------------------------------------------------|
G#||--------8---7---5---7---8---7---------8---7---5---7---8---10-10-10--|
C#||--0-0-0---0---0---0---0---0---0-0-0-0---0---0---0---0---0-----------|
      . . .   .   .   .   .   .   . . . .   .   .   .   .   .


D#||---------------------------------------------------------------|
A#||---------------------------------------------------------------|
F#||---------------------------------------------------------------|
C#||---------------------------------------------------------------|
G#||--------10---8---10---12---10---8--------------12----10--------|
C#||--8-8-8----8---8----8----8----8---8-8-10-10-10----10----10-10--|
      . . .    .   .    .    .    .   . . .  .  .     .     .  .


Guitar 2:
D#||----------------------------------------|
A#||----------------------------------------|
F#||----------------------------------------|
C#||--0-0-0-----------------------0-0-0-0---|
G#||--0-0-0-----------------------0-0-0-0---|
C#||--0-0-0-----------------------0-0-0-0---|
      . . .                       . . . .


D#||---------------------------------------------------------|
A#||---------------------------------------------------------|
F#||---------------------------------------------------------|
C#||--8-8-8-----------------------8-10-10-10-10-10-10-10-10--|
G#||--8-8-8-----------------------8-10-10-10-10-10-10-10-10--|
C#||--8-8-8-----------------------8-10-10-10-10-10-10-10-10--|
      . . .                       . . . . .  .  .  .  .  .


Guitar 1/2:
D#||-----------|
A#||-----------|
F#||-----------|
C#||--888-7-5--|
G#||--888-7-5--|
C#||--888-7-5--|



Pre-Chorus
Guitar 1/2:
D#||---------------------------------------|
A#||---------------------------------------|
F#||---------------------------------------|
C#||--0-00-000-8-88-888-5-55-555-7-7777-3--|
G#||--0-00-000-8-88-888-5-55-555-7-7777-3--|
C#||--0-00-000-8-88-888-5-55-555-7-7777-3--|


D#||-----------------------------------|
A#||-----------------------------------|
F#||-----------------------------------|
C#||--0-00-000-8-88-888-5-55-555-7777--|
G#||--0-00-000-8-88-888-5-55-555-7777--|
C#||--0-00-000-8-88-888-5-55-555-7777--|



Chorus
Guitar 1:
D#||------------------------------------------------------------------|
A#||------------------------------------------------------------------|
F#||---------------5--------------------------------------------------|
C#||--7--5-7-5-7-8-----------------5-------5-5-----5-5-7-7-5-5--------|
G#||------------------7--5-7-5-7-8----8--8-----8-8-------------8-8-7--|
C#||------------------------------------------------------------------|
         . . .           . . .

D#||----------------------------------------------------------------|
A#||----------------------------------------------------------------|
F#||---------------5------------------------------------------------|
C#||--7--5-7-5-7-8-----------------5-------5-5-----5-5-7-7-5--------|
G#||------------------7--5-7-5-7-8----8--8-----8-8------------8--7--|
C#||----------------------------------------------------------------|
         . . .           . . .


Guitar 2:
D#||--------------------------------------|-------------------------------------|
A#||--------------------------------------|-------------------------------------|
F#||--7-77-777----------------------------|--7-77-777---------------------------|
C#||--7-77-777-5-55-555-8-88-888-888-888--|--7-77-777-5-55-555-8-88-888-8887-5--|
G#||--5-55-555-5-55-555-8-88-888-888-888--|--5-55-555-5-55-555-8-88-888-8887-5--|
C#||-----------5-55-555-8-88-888-888-888--|-----------5-55-555-8-88-888-8887-5--|



Bridge
Guitar 1:
D#||-------------------------------------------------------------------------------------|
A#||-------------------------------------------------------------------------------------|
F#||-10--10-10-10-10-10-10/12---9--9-9-9-9-9-555-7--10--9-99999999999--7-77-777-777-777--|
C#||-x---x--x--x--x--x--x-/x----x--x-x-x-x-x-xxx-x--x---x-xxxxxxxxxxx--x-xx-xxx-xxx-xxx--|
G#||-8---8--8--8--8--8--8-/10---7--7-7-7-7-7-333-5--8---7-77777777777--5-55-555-555-555--|
C#||-------------------------------------------------------------------------------------|


D#||------------------------------------------------------------------------------------------|
A#||------------------------------------------------------------------------------------------|
F#||-10--10-10-10-10-10-10/9---12-12-12-12-12-12--555-7--10--9-99999999999--7-77-777-777-777--|
C#||-x---x--x--x--x--x--x-/x---x--x--x--x--x--x---xxx-x--x---x-xxxxxxxxxxx--x-xx-xxx-xxx-xxx--|
G#||-8---8--8--8--8--8--8-/7---10-10-10-10-10-10--333-5--8---7-77777777777--5-55-555-555-555--|
C#||------------------------------------------------------------------------------------------|


Guitar 2:
D#||------------------------------------------------------------------------------------------|
A#||------------------------------------------------------------------------------------------|
F#||-10--10-10-10-10-10-10/9---12-12-12-12-12-12--555-7--10--9-99999999999--7-77-777-777-777--|
C#||-x---x--x--x--x--x--x-/x---x--x--x--x--x--x---xxx-x--x---x-xxxxxxxxxxx--x-xx-xxx-xxx-xxx--|
G#||-8---8--8--8--8--8--8-/7---10-10-10-10-10-10--333-5--8---7-77777777777--5-55-555-555-555--|
C#||------------------------------------------------------------------------------------------|


Guitar 3:
D#||-----------------------------------------------------------------------------------|
A#||-----------------------------------------------------------------------------------|
F#||-----------------------------------------------------------------------------------|
C#||--8--8-8-8-8-8-888--10--10-10-10-10-10-101010--0--0-0-0-0-0-000--5--5-5-5-5-5-555--| x2
G#||--8--8-8-8-8-8-888--10--10-10-10-10-10-101010--0--0-0-0-0-0-000--5--5-5-5-5-5-555--|
C#||--8--8-8-8-8-8-888--10--10-10-10-10-10-101010--0--0-0-0-0-0-000--5--5-5-5-5-5-555--|



Guitar 1:
D#||--------------------------------------------------------------------------------------|
A#||--------------------------------------------------------------------------------------|
F#||--------------------------------------------------------------------------------------|
C#||--------------------------------------------------------------------------------------|
G#||---------10---10p8-----------10---10p8-------------12---12p10-------------12---12p10--|
C#||--8---8---------------8---8---------------10---10----------------10---10--------------|
          .                   .                    .                      .


Guitar 2:
D#||--------------------------------------------------------------------------------|
A#||--------------------------------------------------------------------------------|
F#||--------------------------------------------------------------------------------|
C#||---------8---8p7-----------8---8p7-------------10---10p8-------------10---10p8--|
G#||--------------------------------------------------------------------------------|
C#||--8---8-------------8---8-------------10---10---------------10---10-------------|
          .                 .                  .                     .



Guitar 1/2:
D#||-------------------------------------------------------------------|
A#||-------------------------------------------------------------------|
F#||------101010\9-9-9~---9-9-9-9-7-7-7~---7-7-7-7-7-7-7~---7-7-7-7-7--|
C#||--0---x-x-x-\x-x-x----x-x-x-x-x-x-x----x-x-x-x-x-x-x----x-x-x-x-x--|
G#||--0---8-8-8-\7-7-7~---7-7-7-7-5-5-5~---5-5-5-5-5-5-5~---5-5-5-5-5--|
C#||--0----------------------------------------------------------------|



Guitar 1:
D#||--------------------------------|
A#||--------------------------------|
F#||-10--10-10-10-10-10-10/12---9~--|
C#||-x---x--x--x--x--x--x-/x----x~--|
G#||-8---8--8--8--8--8--8-/10---7~--|
C#||--------------------------------|


Guitar 2:
D#||--------------------------------|
A#||--------------------------------|
F#||-10--10-10-10-10-10-10/9---12~--|
C#||-x---x--x--x--x--x--x-/x---x----|
G#||-8---8--8--8--8--8--8-/7---10~--|
C#||--------------------------------|



Breakdown
Guitar 1:
D#||------------------------------------------------------|
A#||------------------------------------------------------|
F#||------------------------------------------------------|
C#||------------------------------------------------------|
G#||--0--888777555777888777555--0--888777555777888101010--|
C#||--0-------------------------0-------------------------|


D#||----------------------------------------------------------|
A#||----------------------------------------------------------|
F#||----------------------------------------------------------|
C#||----------------------------------------------------------|
G#||--8--101010888101010121212101010888777--10--121212101010--|
C#||--8-------------------------------------10----------------|


D#||----------------------------|
A#||----------------------------|
F#||--101010-999----------------|
C#||-------------121212-101010--|
G#||----------------------------|
C#||----------------------------|


Guitar 2:
D#||-------------------------------|
A#||-------------------------------|
F#||--141414-121212-101010---------|
C#||-----------------------141414--|
G#||-------------------------------|
C#||-------------------------------|


Guitar 3:
D#||------------------------------------------------------|
A#||------------------------------------------------------|
F#||------------------------------------------------------|
C#||------------------------------------------------------|
G#||--0-------------------------0-------------------------|
C#||--0-------------------------0-------------------------|


D#||----------------------------------------------------------|
A#||----------------------------------------------------------|
F#||----------------------------------------------------------|
C#||----------------------------------------------------------|
G#||--8-------------------------------------10----------------|
C#||--8-------------------------------------10----------------|


D#||--------|
A#||--------|
F#||--------|
C#||--------|
G#||--/14\--|
C#||--/14\--|



Guitar 1:
D#||------------------------------------------------------|
A#||------------------------------------------------------|
F#||------------------------------------------------------|
C#||----------------------------------------555-----------|
G#||--0--888777555777888777555--0--888777888---888777888--|
C#||--0-------------------------0-------------------------|


D#||--------------------------------------------------------------|
A#||--------------------------------------------------------------|
F#||---------------------------777666777999101010999101010121212--|
C#||-----777555777888777555---------------------------------------|
G#||--5--------------------888------------------------------------|
C#||--5-----------------------------------------------------------|


D#||------------------------------------------------------|
A#||------------------------------------------------------|
F#||------------------------------------------------------|
C#||-----777555--------------------777555-----------------|
G#||--0--------888777888777555--0--------888777888777888--|
C#||--0-------------------------0-------------------------|


D#||----------------------------------------------------------|
A#||----------------------------------------------------------|
F#||----------------------------------------------------------|
C#||----------------------------------------------------------|
G#||--8--101010888101010121212101010888777--10--121212101010--|
C#||--8-------------------------------------10----------------|


D#||----------------------------|
A#||----------------------------|
F#||--101010-999----------------|
C#||-------------121212-101010--|
G#||----------------------------|
C#||----------------------------|


Guitar 2:
D#||-------------------------------|
A#||-------------------------------|
F#||--141414-121212-101010---------|
C#||-----------------------141414--|
G#||-------------------------------|
C#||-------------------------------|


Guitar 1:
D#||------------------------------------------------------|
A#||------------------------------------------------------|
F#||------------------------------------------------------|
C#||----------------------------------------555-----------|
G#||--0--888777555777888777555--0--888777888---888777888--|
C#||--0-------------------------0-------------------------|


D#||---------------------------------------------------|
A#||---------------------------------------------------|
F#||----------------------------------101010-9---------|
C#||-----555---555777555777888--7~-------------10-12~--|
G#||--5-----888-----------------4~---------------------|
C#||--5------------------------------------------------|


Guitar 3:
D#||------------------------------------------------------|
A#||------------------------------------------------------|
F#||------------------------------------------------------|
C#||--00----------------0-----000-------------------------|
G#||--00----------------0-----000-------------------------|
C#||--00----------------0-----000-------------------------|


D#||------------------------------------------------------|
A#||------------------------------------------------------|
F#||------------------------------------------------------|
C#||--55----------------55----577-------------------------|
G#||--55----------------55----577-------------------------|
C#||--55----------------55----577-------------------------|


D#||--------|
A#||--------|
F#||--------|
C#||--/14\--|
G#||--/14\--|
C#||--/14\--|


D#||------------------------------------------------------|
A#||------------------------------------------------------|
F#||------------------------------------------------------|
C#||--00----------------0-----000-------------------------|
G#||--00----------------0-----000-------------------------|
C#||--00----------------0-----000-------------------------|


D#||------------------------------------------------------|
A#||------------------------------------------------------|
F#||------------------------------------------------------|
C#||--88----------------88----81010-----------------------|
G#||--88----------------88----81010-----------------------|
C#||--88----------------88----81010-----------------------|


D#||--------|
A#||--------|
F#||--------|
C#||--/14\--|
G#||--/14\--|
C#||--/14\--|


D#||------------------------------------------------------|
A#||------------------------------------------------------|
F#||------------------------------------------------------|
C#||--00----------------0-----000-------------------------|
G#||--00----------------0-----000-------------------------|
C#||--00----------------0-----000-------------------------|


D#||------------------------------------------------------|
A#||------------------------------------------------------|
F#||------------------------------------------------------|
C#||--55-----------------888-7--5-------------------------|
G#||--55-----------------888-7--5-------------------------|
C#||--55-----------------888-7--5-------------------------|



Pre-Chorus
Guitar 1/2:
D#||---------------------------------------|
A#||---------------------------------------|
F#||---------------------------------------|
C#||--0-00-000-8-88-888-5-55-555-7-7777-3--|
G#||--0-00-000-8-88-888-5-55-555-7-7777-3--|
C#||--0-00-000-8-88-888-5-55-555-7-7777-3--|


D#||-----------------------------------|
A#||-----------------------------------|
F#||-----------------------------------|
C#||--0-00-000-8-88-888-5-55-555-7777--|
G#||--0-00-000-8-88-888-5-55-555-7777--|
C#||--0-00-000-8-88-888-5-55-555-7777--|



Chorus
Guitar 1:
D#||------------------------------------------------------------------------|
A#||------------------------------------------------------------------------|
F#||---------------5--------------------------------------------------------|
C#||--7--5-7-5-7-8-----------------5-------5-5-----5-5-7-7-5-5--------------|
G#||------------------7--5-7-5-7-8----8--8-----8-8-------------8-8-7---5~\--|
C#||------------------------------------------------------------------------|
         . . .           . . .

D#||----------------------------------------------------------------|
A#||----------------------------------------------------------------|
F#||---------------5------------------------------------------------|
C#||--7--5-7-5-7-8-----------------5-------5-5-----5-5-7-7-5--------|
G#||------------------7--5-7-5-7-8----8--8-----8-8------------8--7--|
C#||----------------------------------------------------------------|
         . . .           . . .


Guitar 2:
D#||--------------------------------------|------------------------------------------|
A#||--------------------------------------|------------------------------------------|
F#||--7-77-777----------------------------|--7-77-777--------------------------------|
C#||--7-77-777-5-55-555-8-88-888-888-888--|--7-77-777-5-55-555-8-88-888-8887-5---0~--|
G#||--5-55-555-5-55-555-8-88-888-888-888--|--5-55-555-5-55-555-8-88-888-8887-5---0~--|
C#||-----------5-55-555-8-88-888-888-888--|-----------5-55-555-8-88-888-8887-5---0~--|




Tablature Legend
----------------
 h   hammer-on
 p   pull-off
 b   bend
 pb  pre-bend
 r   release bend
 ~   hold / vibrato
 .   palm mute
 /   slide up
 \   slide down
 *   pinch harmonic
 '   natural harmonic
 x   mute note
 T   tap
comments
We did not receive enough feedback on this tab! Please rate:
print report bad tab
1 2 3 4 5
I want to post or [tab]
guest
You may want to rate the tab now too:
select rating
Please do not post tabs as comments. Select "correction" instead!