Oops, an error
Loading. Please wait.

Live To Kill Tab

ver2
ver2

Whole song

More versions @911Tabs.com
339 views 3 this week
no commentswrite comment
1 2 3 4 5
excellent!
x 1
Autoscroll
+/-
esc
set tempo
stop
Contributor
Difficulty
Tuning
intermediate
D# G# C# F# A# D#
Hey! There's an official Ultimate Guitar app which is ideal
for learning songs when you're away from computer. Get the app
WARNING: You are trying to view
                                    content from Ultimate-Guitar.com
                                    in an unauthorized application,
                                    which is prohibited.

                                    Please use an official Ultimate
                                    Guitar Tabs application for iPhone,
                                    iPad or Android to access legitimate
                                    chords, guitar, bass, and drum tabs
                                    from Ultimate-Guitar.com database.

                                    Type "ultimate guitar tabs" in Apple
                                    App Store's or Android Market's
                                    search to find the application.
Tabbed by: Joshua Garcia (joshuag523@aol.com)

Tabs for the song: Live To Kill by Silverstein
Please rate and let me know if you have any corrections. Thank you.


**NOTE - This was taken from my full album tab, which can be found here: 
http://tabs.ultimate-guitar.com/s/silverstein/rescue_album_tab.htm **


Tuning: Half-Step Down (D# G# C# F# A# D#)


Intro
Guitar 1:
D#||-----------------'12~---|
A#||---'5~------------------|
F#||------------------------|
C#||------------------------|
G#||------------------------|
D#||------------------------|


Guitar 1:
D#||-----------------------------------------------|----------------------------------------|
A#||-----------------------------------------------|----------------------------------------|
F#||---/7------------------------------------------|---/7-----------------------------------|
C#||--------9-------------10---10-10-10-10-10-10---|--------9-------------10--------7---9---| x2
G#||----------10-9-7-9-10--------------------------|----------10-9-7-9-10------10-----------|
D#||-----------------------------------------------|----------------------------------------|


Guitar 2:
D#||--------------------------------------------------|
A#||--------------------------------------------------|
F#||-------------5--555555-------------5--------------|
C#||--2--222222--5--555555--2--222222--5---5---7---9--|
G#||--2--222222--3--333333--2--222222--3---5---7---9--| x2
D#||--0--000000-------------0--000000------3---5---7--|



Verse
Guitar 1:
D#||------------0---------------0---------------0---------------0-------|
A#||------3-------3-------3-------3-------1-------1-------1-------3-----|
F#||--------0-------0-------0-------0-------0-------0-------0-------5---|
C#||--2-------2-------2-------2---------------0---------------0---------|
G#||----------------------------------3---------------3-----------------|
D#||--------------------------------------------------------------------|


D#||--------3---3/5\3--------3---3/5\3----------------------------------------|
A#||------3---3------------3---3------------3--/8-8-7-7-8-8-10-10-8-8-7-8-10--|
F#||--0----------------0----------------0-------------------------------------|
C#||--------------------------------------------------------------------------| x2
G#||--------------------------------------------------------------------------|
D#||--------------------------------------------------------------------------|


Guitar 2:
D#||--------------------------------------|
A#||--------------------------------------|
F#||--------------------------------------|
C#||--9~---------5~------------------7~---| x2
G#||--7~---------3~--------5~--------5~---|
D#||-----------------------3~-------------|



Pre-Chorus
Guitar 1:
D#||-------------------------------------|
A#||-------------------------------------|
F#||---9~--------7~--------5~--------5---|
C#||---x---------x---------x---------x---|
G#||---7~--------5~--------3~--------3---|
D#||-------------------------------------|


Guitar 2:
D#||-------------------------------------|
A#||-------------------------------------|
F#||---9~--------11~-------12~-------12--|
C#||---x---------x---------x---------x---|
G#||---7~--------9~--------10~-------10--|
D#||-------------------------------------|



Chorus
Guitar 1:
D#||-----------------------------------------------|----------------------------------------|
A#||-----------------------------------------------|----------------------------------------|
F#||---/7------------------------------------------|---/7-----------------------------------|
C#||--------9-------------10---10-10-10-10-10-10---|--------9-------------10--------7---9---| x2
G#||----------10-9-7-9-10--------------------------|----------10-9-7-9-10------10-----------|
D#||-----------------------------------------------|----------------------------------------|


Guitar 2:
D#||--------------------------------------------------|
A#||--------------------------------------------------|
F#||-------------5--555555-------------5--------------|
C#||--2--222222--5--555555--2--222222--5---5---7---9--|
G#||--2--222222--3--333333--2--222222--3---5---7---9--| x2
D#||--0--000000-------------0--000000------3---5---7--|



Alternate Verse
Guitar 1:
D#||-------------------------------------------------------|
A#||-------------------------------------------------------|
F#||---9~-----/16-----14---12--5~-----/16----14---12--12~--|
C#||---x------/x------x----x---x------/x-----x----x---x----|
G#||---7~-----/14-----12---10--3~-----/14----12---10--10~--|
D#||-------------------------------------------------------|


D#||---------------------------------------------|
A#||---------------------------------------------|
F#||---/16-----14---12--11~-----/14----12---11---|
C#||---/x------x----x---x-------/x-----x----x----| x2
G#||---/14-----12---10--9~------/12----10---9----|
D#||---------------------------------------------|


Guitar 3:
D#||---------------------------------------------------------------------|
A#||---------------------------------------------------------------------|
F#||--9--9---------------------------------------------------------------|
C#||--9--9---------------------------------------------------------------|
G#||--7--7--7-7-7-7-7-7-7-7-7-7-7-7-7-7-3-3-3-3-3-3-3-3-3-3-3-3-3-3-3-3--|
D#||---------------------------------------------------------------------|
            . . . . . . . . . . . . . . . . . . . . . . . . . . . . . .


D#||-------------------------------------------------------------------|
A#||-------------------------------------------------------------------|
F#||-------------------------------------------------------------------|
C#||-------------------------------------------------------------------|
G#||----------------------------------5-5-5-5-5-5-5-5-6-6-6-6-6-6-6-6--|
D#||--3-3-3-3-3-3-3-3-3-3-3-3-3-3-3-3----------------------------------|
      . . . . . . . . . . . . . . . . . . . . . . . . . . . . . . . .


Guitar 2:
D#||--------------------------------------------------|
A#||--------------------------------------------------|
F#||---9~-----/7-------------------/7-----------------|
C#||---x-------------10---9--------------10---9--9~---|
G#||---7~---------------------------------------------|
D#||-------------------------8~-----------------------|


D#||-------------------------------------|
A#||-------------------------------------|
F#||---/7--------------------------------|
C#||----------10---9--7~----/10---9--7---|
G#||-------------------------------------|
D#||-------------------------------------|


Guitar 3:
D#||-------------------------------------------------------------------|
A#||-------------------------------------------------------------------|
F#||-------------------------------------------------------------------|
C#||-------------------------------------------------------------------|
G#||--7-7-7-7-7-7-7-7-7-7-7-7-7-7-7-7-3-3-3-3-3-3-3-3-3-3-3-3-3-3-3-3--|
D#||-------------------------------------------------------------------|
      . . . . . . . . . . . . . . . . . . . . . . . . . . . . . . . .


D#||-------------------------------------------------------------------|
A#||-------------------------------------------------------------------|
F#||-------------------------------------------------------------------|
C#||-------------------------------------------------------------------|
G#||----------------------------------5-5-5-5-5-5-5-5-6-6-6-6-6-6-6-6--|
D#||--3-3-3-3-3-3-3-3-3-3-3-3-3-3-3-3----------------------------------|
      . . . . . . . . . . . . . . . . . . . . . . . . . . . . . . . .



Pre-Chorus
Guitar 1:
D#||-------------------------------------|
A#||-------------------------------------|
F#||---9~--------7~--------5~--------5---|
C#||---x---------x---------x---------x---|
G#||---7~--------5~--------3~--------3---|
D#||-------------------------------------|


Guitar 2:
D#||-------------------------------------|
A#||-------------------------------------|
F#||---9~--------11~-------12~-------12--|
C#||---x---------x---------x---------x---|
G#||---7~--------9~--------10~-------10--|
D#||-------------------------------------|



Chorus
Guitar 1:
D#||-----------------------------------------------|----------------------------------------|
A#||-----------------------------------------------|----------------------------------------|
F#||---/7------------------------------------------|---/7-----------------------------------|
C#||--------9-------------10---10-10-10-10-10-10---|--------9-------------10--------7---9---| x2
G#||----------10-9-7-9-10--------------------------|----------10-9-7-9-10------10-----------|
D#||-----------------------------------------------|----------------------------------------|


Guitar 2:
D#||--------------------------------------------------|
A#||--------------------------------------------------|
F#||-------------5--555555-------------5--------------|
C#||--2--222222--5--555555--2--222222--5---5---7---9--|
G#||--2--222222--3--333333--2--222222--3---5---7---9--| x2
D#||--0--000000-------------0--000000------3---5---7--|



Bridge
Guitar 1:
D#||----------------------------------------------------------------------|
A#||----------------------------------------------------------------------|
F#||-9999-11111111-12121212-14141414-11111111-12121212-14141414-16161616--|
C#||-xxxx-x-x-x-x--x-x-x-x--x-x-x-x--x-x-x-x--x-x-x-x--x-x-x-x--x-x-x-x---|
G#||-7777-9-9-9-9--10101010-12121212-9-9-9-9--10101010-12121212-14141414--|
D#||----------------------------------------------------------------------|


D#||--------------------------------------------------------------------------|
A#||--------------------------------------------------------------------------|
F#||-16161616-14141414-12121212-11111111-16161616-14141414-12121212-14141414--|
C#||-x-x-x-x--x-x-x-x--x-x-x-x--x-x-x-x--x-x-x-x--x-x-x-x--x-x-x-x--x-x-x-x---|
G#||-14141414-12121212-10101010-9-9-9-9--14141414-12121212-10101010-12121212--|
D#||--------------------------------------------------------------------------|


D#||----------------------------------------------------------------------|
A#||----------------------------------------------------------------------|
F#||-9999-11111111-12121212-14141414-11111111-12121212-14141414-19191919--|
C#||-xxxx-x-x-x-x--x-x-x-x--x-x-x-x--x-x-x-x--x-x-x-x--x-x-x-x--x-x-x-x---|
G#||-7777-9-9-9-9--10101010-12121212-9-9-9-9--10101010-12121212-17171717--|
D#||----------------------------------------------------------------------|


D#||--------------------------------------------------------------------------|
A#||--------------------------------------------------------------------------|
F#||-16161616-14141414-12121212-11111111-16161616-14141414-12121212-14141414--|
C#||-x-x-x-x--x-x-x-x--x-x-x-x--x-x-x-x--x-x-x-x--x-x-x-x--x-x-x-x--x-x-x-x---|
G#||-14141414-12121212-10101010-9-9-9-9--14141414-12121212-10101010-12121212--|
D#||--------------------------------------------------------------------------|


Guitar 2:
D#||-----------------------------------------------------------------------|
A#||-----------------------------------------------------------------------|
F#||--5555555555555555-7777777777777777------------------------------------|
C#||--5555555555555555-7777777777777777-2222222222222222-5555555555555555--| x2
G#||--3333333333333333-5555555555555555-2222222222222222-5555555555555555--|
D#||------------------------------------0000000000000000-3333333333333333--|



Pre-Chorus
Guitar 1:
D#||-------------------------------------|
A#||-------------------------------------|
F#||---9~--------7~--------5~--------5---|
C#||---x---------x---------x---------x---|
G#||---7~--------5~--------3~--------3---|
D#||-------------------------------------|


Guitar 2:
D#||-------------------------------------|
A#||-------------------------------------|
F#||---9~--------11~-------12~-------12--|
C#||---x---------x---------x---------x---|
G#||---7~--------9~--------10~-------10--|
D#||-------------------------------------|



Chorus
Guitar 1:
D#||-----------------------------------------------|----------------------------------------|
A#||-----------------------------------------------|----------------------------------------|
F#||---/7------------------------------------------|---/7-----------------------------------|
C#||--------9-------------10---10-10-10-10-10-10---|--------9-------------10--------7---9---| x2
G#||----------10-9-7-9-10--------------------------|----------10-9-7-9-10------10-----------|
D#||-----------------------------------------------|----------------------------------------|


Guitar 2:
D#||--------------------------------------------------|
A#||--------------------------------------------------|
F#||-------------5--555555-------------5--------------|
C#||--2--222222--5--555555--2--222222--5---5---7---9--|
G#||--2--222222--3--333333--2--222222--3---5---7---9--| x2
D#||--0--000000-------------0--000000------3---5---7--|



Guitar 1:
D#||------------------------------------------|----------------------------------------|
A#||------------------------------------------|----------------------------------------|
F#||---/7-------------------------------------|---/7-----------------------------------|
C#||--------9-------------10---10-10----xxx---|--------9-------------10--------7---9---| x2
G#||----------10-9-7-9-10---------------xxx---|----------10-9-7-9-10------10-----------|
D#||------------------------------------xxx---|----------------------------------------|


Guitar 2:
D#||--------------------------------------------------|
A#||--------------------------------------------------|
F#||-------------5--55-----------------5--------------|
C#||--2--22-xxx--5--55-xxx--2--22-xxx--5---5---7---9--|
G#||--2--22-xxx--3--33-xxx--2--22-xxx--3---5---7---9--| x2
D#||--0--00-xxx--------xxx--0--00-xxx------3---5---7--|



Outro
Guitar 1/2:
D#||--------------------------------------------------|
A#||--------------------------------------------------|
F#||-------------5---5-----------------5--------------|
C#||--2---2------5---5------2---2-xxx--5---5---7---9--|
G#||--2---2------3---3------2---2-xxx--3---5---7---9--| x2
D#||--0---0-----------------0---0-xxx------3---5---7--|




Tablature Legend
----------------
 h   hammer-on
 p   pull-off
 b   bend
 pb  pre-bend
 r   release bend
 ~   hold / vibrato
 .   palm mute
 /   slide up
 \   slide down
 *   pinch harmonic
 '   natural harmonic
 x   mute note
 T   tap
comments
We did not receive enough feedback on this tab! Please rate:
print report bad tab
1 2 3 4 5
I want to post or [tab]
guest
You may want to rate the tab now too:
select rating
Please do not post tabs as comments. Select "correction" instead!