Oops, an error
Loading. Please wait.

Massachusetts Tab

13,349 views 240 this week
no commentswrite comment
1 2 3 4 5
excellent!
x 6
Autoscroll
+/-
esc
set tempo
stop
Contributor
Difficulty
Tuning
intermediate
C# G# C# F# A# D#
WARNING: You are trying to view
                                    content from Ultimate-Guitar.com
                                    in an unauthorized application,
                                    which is prohibited.

                                    Please use an official Ultimate
                                    Guitar Tabs application for iPhone,
                                    iPad or Android to access legitimate
                                    chords, guitar, bass, and drum tabs
                                    from Ultimate-Guitar.com database.

                                    Type "ultimate guitar tabs" in Apple
                                    App Store's or Android Market's
                                    search to find the application.
Tabbed by: Joshua Garcia (joshuag523@aol.com)

Tabs for the song: Massachusetts by Silverstein
Please rate and let me know if you have any corrections. Thank you.


**For my tab of the whole album, go here:
http://tabs.ultimate-guitar.com/s/silverstein
/this_is_how_the_wind_shifts_album_tab.htm **


Tuning: Drop C# (C# G# C# F# A# D#)


Intro
Guitar 1/2:
D#||------------------------------------------------|
A#||------------------------------------------------|
F#||------------------------------------------------|
C#||------------------------------------------------|
G#||--8-8---10-10---8--8----7--7-~----///pick////---|
C#||--0-0---8--8----10-10---10-10~----////slide///--|



Verse
Guitar 1/2:
D#||-------------------------------------------|------------------------------------|
A#||-------------------------------------------|------------------------------------|
F#||----------------------------------9-10-----|------------------------------------|
C#||-------------------------------10------10--|---------------------7---5---3---5--|
G#||------8------10-------7--------------------|------8------10------8---7---5---7--|
C#||--0-----10-0----10-0-------8-8-------------|--0-----10-0----10-0----------------|
               .       .       . . .                       .       .


Guitar 1:
D#||-------------------------------------------|
A#||-------------------------------------------|
F#||----------------------------------9-10-----|
C#||-------------------------------10------10--|
G#||------8------10-------7--------------------|
C#||--0-----10-0----10-0-------8-8-------------|
               .       .       . . .


Guitar 2:
D#||-----------------------------------------|
A#||---------------------------------8-10----|
F#||-------------------------------9------9--|
C#||-----------------------------------------|
G#||------8------10-------7------------------|
C#||--0-----10-0----10-0-------8-8-----------|
               .       .       . . .


Guitar 1/2:
D#||-------------------------------------|
A#||-------------------------------------|
F#||-------------------------------------|
C#||--10--1010--101010--7---77---5---55--|
G#||--8---8-8---8-8-8---3---33---3---33--|
C#||--8---8-8---8-8-8---3---33---2---22--|



Guitar 1/2:
D#||-------------------------------------------|------------------------------------|
A#||-------------------------------------------|------------------------------------|
F#||----------------------------------9-10-----|------------------------------------|
C#||-------------------------------10------10--|---------------------7---5---3---5--|
G#||------8------10-------7--------------------|------8------10------8---7---5---7--|
C#||--0-----10-0----10-0-------8-8-------------|--0-----10-0----10-0----------------|
               .       .       . . .                       .       .


Guitar 1:
D#||-------------------------------------------|
A#||-------------------------------------------|
F#||----------------------------------9-10-----|
C#||-------------------------------10------10--|
G#||------8------10-------7--------------------|
C#||--0-----10-0----10-0-------8-8-------------|
               .       .       . . .


Guitar 2:
D#||-----------------------------------------|
A#||---------------------------------8-10----|
F#||-------------------------------9------9--|
C#||-----------------------------------------|
G#||------8------10-------7------------------|
C#||--0-----10-0----10-0-------8-8-----------|
               .       .       . . .


Guitar 1/2:
D#||----------------------------------------|
A#||----------------------------------------|
F#||----------------------------------------|
C#||--10--1010--101010--7---77-/-10---1010--|
G#||--8---8-8---8-8-8---3---33-/-7----7-7---|
C#||--8---8-8---8-8-8---3---33-/-7----7-7---|



Pre-Chorus
Guitar 1:
D#||---------------------------------------|---------------------|
A#||---------------------------------------|---------------------|
F#||--7~-----9~-----9-~-----10--10--9---7--|--7~-----9~-----9~---|
C#||--8~-----8~-----10~-----10--10--10--5--|--8~-----8~-----10~--|
G#||---------------------------------------|---------------------|
C#||---------------------------------------|---------------------|


D#||----------------|
A#||----------------|
F#||--1010101010-9--|
C#||--7-7-7-7-7--7--|
G#||----------------|
C#||----------------|


Guitar 2:
D#||---------------------------------------------------|
A#||---------------------------------------------------|
F#||---------------------------------------------------|
C#||--8~----------10~----------8~----------10~------7--|
G#||--8~----------10~----------8~----------10~------7--|
C#||--8~----------10~----------8~----------10~------7--|



Chorus
Guitar 1:
D#||---------------------------------------------------------------|
A#||---------------------------------------------------------------|
F#||--10-1010-1012---17-1717-171514--14-1414-141514-12-1212-10--9--|
C#||--x--x-x--x-x----x--x-x--x-x-x---x--x-x--x-x-x--x--x-x--x---x--|
G#||--8--8-8--8-10---15-1515-151312--12-1212-121312-10-1010-8---7--|
C#||---------------------------------------------------------------|


D#||------------------------------------------------------------|
A#||------------------------------------------------------------|
F#||--10-1010-1012---9-99--9-10-9-7-77-777--14--1414--17--1717--|
C#||--x--x-x--x-x----x-xx--x-x--x-x-xx-xxx--x---x-x---x---x-x---|
G#||--8--8-8--8-10---7-77--7-8--7-5-55-555--12--1212--15--1515--|
C#||------------------------------------------------------------|


D#||---------------------------------------------------------------|
A#||---------------------------------------------------------------|
F#||--10-1010-1012---17-1717-171514--14-1414-141514-12-1212-10--9--|
C#||--x--x-x--x-x----x--x-x--x-x-x---x--x-x--x-x-x--x--x-x--x---x--|
G#||--8--8-8--8-10---15-1515-151312--12-1212-121312-10-1010-8---7--|
C#||---------------------------------------------------------------|


D#||-------------------------------------------------------|
A#||-------------------------------------------------------|
F#||--10-1010-1012---9-99--9-10-9-7-77-777-----------------|
C#||--x--x-x--x-x----x-xx--x-x--x-x-xx-xxx-----------------|
G#||--8--8-8--8-10---7-77--7-8--7-5-55-555-----------------|
C#||----------------------------------------x-x-x-x-x-x-x--|


Guitar 2:
D#||------------------------------------------------------|
A#||------------------------------------------------------|
F#||--7-77-777--------------------------------------------|
C#||--7-77-777--10-1010-101010--7-77-777--10-1010-101010--|
G#||--5-55-555--8--8-8--8-8-8---8-88-888--10-1010-101010--|
C#||------------8--8-8--8-8-8---7-77-777--10-1010-101010--|


D#||-----------------------------------------------|
A#||-----------------------------------------------|
F#||---------------------------7-77-777------------|
C#||--8-88-888-10-1010-101010--7-77-777--3-33-333--|
G#||--8-88-888-10-1010-101010--5-55-555--3-33-333--|
C#||--8-88-888-10-1010-101010------------3-33-333--|


D#||------------------------------------------------------|
A#||------------------------------------------------------|
F#||--7-77-777--------------------------------------------|
C#||--7-77-777--10-1010-101010--7-77-777--10-1010-101010--|
G#||--5-55-555--8--8-8--8-8-8---8-88-888--10-1010-101010--|
C#||------------8--8-8--8-8-8---7-77-777--10-1010-101010--|


D#||----------------------------------------------------|
A#||----------------------------------------------------|
F#||---------------------------7-77-777-----------------|
C#||--8-88-888-10-1010-101010--7-77-777-----------------|
G#||--8-88-888-10-1010-101010--5-55-555-----------------|
C#||--8-88-888-10-1010-101010------------x-x-x-x-x-x-x--|



Pre-Verse
Guitar 1:
D#||-------------------------------------------|------------------------------------|
A#||-------------------------------------------|------------------------------------|
F#||----------------------------------9-10-----|------------------------------------|
C#||-------------------------------10------10--|---------------------7---5---3---5--|
G#||------8------10-------7--------------------|------8------10------8---7---5---7--|
C#||--0-----10-0----10-0-------8-8-------------|--0-----10-0----10-0----------------|
               .       .       . . .                       .       .


Guitar 2:
D#||-------------------------------------------|------------------------------------|
A#||-------------------------------------------|------------------------------------|
F#||-------------------------------------------|------------------------------------|
C#||-------------------------------------------|---------------------7---5---3---5--|
G#||-------------------------------------------|---///pick////-------8---7---5---7--|
C#||-------------------------------------------|---////slide///---------------------|



Verse
Guitar 1:
D#||-------------------------------------------|
A#||-------------------------------------------|
F#||----------------------------------9-10-----|
C#||-------------------------------10------10--|
G#||------8------10-------7--------------------|
C#||--0-----10-0----10-0-------8-8-------------|
               .       .       . . .


Guitar 2:
D#||-----------------------------------------|
A#||---------------------------------8-10----|
F#||-------------------------------9------9--|
C#||-----------------------------------------|
G#||------8------10-------7------------------|
C#||--0-----10-0----10-0-------8-8-----------|
               .       .       . . .


Guitar 1/2:
D#||-------------------------------------|
A#||-------------------------------------|
F#||-------------------------------------|
C#||--10--1010--101010--7---77---5---55--|
G#||--8---8-8---8-8-8---3---33---3---33--|
C#||--8---8-8---8-8-8---3---33---2---22--|


D#||-------------------------------------------|------------------------------------|
A#||-------------------------------------------|------------------------------------|
F#||----------------------------------9-10-----|------------------------------------|
C#||-------------------------------10------10--|---------------------7---5---3---5--|
G#||------8------10-------7--------------------|------8------10------8---7---5---7--|
C#||--0-----10-0----10-0-------8-8-------------|--0-----10-0----10-0----------------|
               .       .       . . .                       .       .


Guitar 1:
D#||-------------------------------------------|
A#||-------------------------------------------|
F#||----------------------------------9-10-----|
C#||-------------------------------10------10--|
G#||------8------10-------7--------------------|
C#||--0-----10-0----10-0-------8-8-------------|
               .       .       . . .


Guitar 2:
D#||-----------------------------------------|
A#||---------------------------------8-10----|
F#||-------------------------------9------9--|
C#||-----------------------------------------|
G#||------8------10-------7------------------|
C#||--0-----10-0----10-0-------8-8-----------|
               .       .       . . .


Guitar 1/2:
D#||----------------------------------------|
A#||----------------------------------------|
F#||----------------------------------------|
C#||--10--1010--101010--7---77-/-10---1010--|
G#||--8---8-8---8-8-8---3---33-/-7----7-7---|
C#||--8---8-8---8-8-8---3---33-/-7----7-7---|



Pre-Chorus
Guitar 1:
D#||---------------------------------------|---------------------|
A#||---------8~----------------------------|---------------------|
F#||--7~-----9~-----9-~-----10--10--9---7--|--7~-----9~-----9~---|
C#||--8~------------10~-----10--10--10--5--|--8~-----8~-----10~--|
G#||---------------------------------------|---------------------|
C#||---------------------------------------|---------------------|


D#||----------------|
A#||-------------8--|
F#||--1010101010-x--|
C#||--7-7-7-7-7--7--|
G#||----------------|
C#||----------------|


Guitar 2:
D#||---------------------------------------------------|
A#||---------------------------------------------------|
F#||---------------------------------------------------|
C#||--8~----------10~----------8~----------10~------7--|
G#||--8~----------10~----------8~----------10~------7--|
C#||--8~----------10~----------8~----------10~------7--|



Chorus
Guitar 1:
D#||---------------------------------------------------------------|
A#||---------------------------------------------------------------|
F#||--10-1010-1012---17-1717-171514--14-1414-141514-12-1212-10--9--|
C#||--x--x-x--x-x----x--x-x--x-x-x---x--x-x--x-x-x--x--x-x--x---x--|
G#||--8--8-8--8-10---15-1515-151312--12-1212-121312-10-1010-8---7--|
C#||---------------------------------------------------------------|


D#||------------------------------------------------------------|
A#||------------------------------------------------------------|
F#||--10-1010-1012---9-99--9-10-9-7-77-777--14--1414--17--1717--|
C#||--x--x-x--x-x----x-xx--x-x--x-x-xx-xxx--x---x-x---x---x-x---|
G#||--8--8-8--8-10---7-77--7-8--7-5-55-555--12--1212--15--1515--|
C#||------------------------------------------------------------|


D#||---------------------------------------------------------------|
A#||---------------------------------------------------------------|
F#||--10-1010-1012---17-1717-171514--14-1414-141514-12-1212-10--9--|
C#||--x--x-x--x-x----x--x-x--x-x-x---x--x-x--x-x-x--x--x-x--x---x--|
G#||--8--8-8--8-10---15-1515-151312--12-1212-121312-10-1010-8---7--|
C#||---------------------------------------------------------------|


D#||-------------------------------------------------------|
A#||-------------------------------------------------------|
F#||--10-1010-1012---9-99--9-10-9-7-77-777-----------------|
C#||--x--x-x--x-x----x-xx--x-x--x-x-xx-xxx-----------------|
G#||--8--8-8--8-10---7-77--7-8--7-5-55-555-----------------|
C#||----------------------------------------x-x-x-x-x-x-x--|


Guitar 2:
D#||------------------------------------------------------|
A#||------------------------------------------------------|
F#||--7-77-777--------------------------------------------|
C#||--7-77-777--10-1010-101010--7-77-777--10-1010-101010--|
G#||--5-55-555--8--8-8--8-8-8---8-88-888--10-1010-101010--|
C#||------------8--8-8--8-8-8---7-77-777--10-1010-101010--|


D#||-----------------------------------------------|
A#||-----------------------------------------------|
F#||---------------------------7-77-777------------|
C#||--8-88-888-10-1010-101010--7-77-777--3-33-333--|
G#||--8-88-888-10-1010-101010--5-55-555--3-33-333--|
C#||--8-88-888-10-1010-101010------------3-33-333--|


D#||------------------------------------------------------|
A#||------------------------------------------------------|
F#||--7-77-777--------------------------------------------|
C#||--7-77-777--10-1010-101010--7-77-777--10-1010-101010--|
G#||--5-55-555--8--8-8--8-8-8---8-88-888--10-1010-101010--|
C#||------------8--8-8--8-8-8---7-77-777--10-1010-101010--|


D#||----------------------------------------------------|
A#||----------------------------------------------------|
F#||---------------------------7-77-777-----------------|
C#||--8-88-888-10-1010-101010--7-77-777-----------------|
G#||--8-88-888-10-1010-101010--5-55-555-----------------|
C#||--8-88-888-10-1010-101010------------x-x-x-x-x-x-x--|



Breakdown
Guitar 1/2:
D#||---------------------------------------------------------------------------------------------|
A#||---------------------------------------------------------------------------------------------|
F#||---------------------------------------------------------------------------------------------|
C#||--7-\-----------------------------7-\-------------------------------6------------------------|
G#||--5-\--0-0-0-----0-0-0-0----0-3/5-5-\--0-0-0-0-----0-0-0-0----8-5-7-4---0-0-0-0-----0-0-0-0--|
C#||-------0-0-0-----0-0-0-0----0-3/5------0-0-0-0-----0-0-0-0----8-5-7-----0-0-0-0-----0-0-0-0--|
           . . .     . . . .               . . . .     . . . .              . . . .     . . . .

D#||---------------------------------------------|
A#||---------------------------------------------|
F#||---------------------------------------------|
C#||---------------------------------------------|
G#||--0-5-7-8---8-8-8-8-----8-10-10-10----8-7-5--|
C#||--0-5-7-8---8-8-8-8-----8-10-10-10----8-7-5--|
                . . . .     . .  .  .

D#||---------------------------------------------------------------------------------------------|
A#||---------------------------------------------------------------------------------------------|
F#||---------------------------------------------------------------------------------------------|
C#||--7-\-----------------------------7-\-------------------------------6------------------------|
G#||--5-\--0-0-0-----0-0-0-0----0-3/5-5-\--0-0-0-0-----0-0-0-0----8-5-7-4---0-0-0-0-----0-0-0-0--|
C#||-------0-0-0-----0-0-0-0----0-3/5------0-0-0-0-----0-0-0-0----8-5-7-----0-0-0-0-----0-0-0-0--|
           . . .     . . . .               . . . .     . . . .              . . . .     . . . .

D#||---------------------------------------------|
A#||---------------------------------------------|
F#||---------------------------------------------|
C#||--------10--1010--101010---11--1111--111111--|
G#||--0-5-7-8---8-8---8-8-8----12--1212--121212--|
C#||--0-5-7-8---8-8---8-8-8----11--1111--111111--|



Interlude
Guitar 1:
D#||---------------------------------------|---------------------|
A#||---------------------------------------|---------------------|
F#||--7~-----9~-----9-~-----10--10--9---7--|--7~-----9~-----9~---|
C#||--8~------------10~-----------------5--|--8~------------10~--|
G#||---------------------------------------|---------------------|
C#||---------------------------------------|---------------------|


D#||----------------|
A#||----------------|
F#||--1010101010-9--|
C#||--7-7-7-7-7--7--|
G#||----------------|
C#||----------------|


Guitar 2:
D#||----------------|
A#||----------------|
F#||----------------|
C#||--7-7-7-7-7-7---|
G#||--7-7-7-7-7-7---|
C#||--7-7-7-7-7-7---|



Chorus
Guitar 1:
D#||---------------------------------------------------------------|
A#||---------------------------------------------------------------|
F#||--10-1010-1012---17-1717-171514--14-1414-141514-12-1212-10--9--|
C#||--x--x-x--x-x----x--x-x--x-x-x---x--x-x--x-x-x--x--x-x--x---x--|
G#||--8--8-8--8-10---15-1515-151312--12-1212-121312-10-1010-8---7--|
C#||---------------------------------------------------------------|


D#||------------------------------------------------------------|
A#||------------------------------------------------------------|
F#||--10-1010-1012---9-99--9-10-9-7-77-777--14--1414--17--1717--|
C#||--x--x-x--x-x----x-xx--x-x--x-x-xx-xxx--x---x-x---x---x-x---|
G#||--8--8-8--8-10---7-77--7-8--7-5-55-555--12--1212--15--1515--|
C#||------------------------------------------------------------|


D#||---------------------------------------------------------------|
A#||---------------------------------------------------------------|
F#||--10-1010-1012---17-1717-171514--14-1414-141514-12-1212-10--9--|
C#||--x--x-x--x-x----x--x-x--x-x-x---x--x-x--x-x-x--x--x-x--x---x--|
G#||--8--8-8--8-10---15-1515-151312--12-1212-121312-10-1010-8---7--|
C#||---------------------------------------------------------------|


D#||-------------------------------------------------------|
A#||-------------------------------------------------------|
F#||--10-1010-1012---9-99--9-10-9-7-77-777-----------------|
C#||--x--x-x--x-x----x-xx--x-x--x-x-xx-xxx-----------------|
G#||--8--8-8--8-10---7-77--7-8--7-5-55-555-----------------|
C#||----------------------------------------x-x-x-x-x-x-x--|


Guitar 2:
D#||------------------------------------------------------|
A#||------------------------------------------------------|
F#||--7-77-777--------------------------------------------|
C#||--7-77-777--10-1010-101010--7-77-777--10-1010-101010--|
G#||--5-55-555--8--8-8--8-8-8---8-88-888--10-1010-101010--|
C#||------------8--8-8--8-8-8---7-77-777--10-1010-101010--|


D#||-----------------------------------------------|
A#||-----------------------------------------------|
F#||---------------------------7-77-777------------|
C#||--8-88-888-10-1010-101010--7-77-777--3-33-333--|
G#||--8-88-888-10-1010-101010--5-55-555--3-33-333--|
C#||--8-88-888-10-1010-101010------------3-33-333--|


D#||------------------------------------------------------|
A#||------------------------------------------------------|
F#||--7-77-777--------------------------------------------|
C#||--7-77-777--10-1010-101010--7-77-777--10-1010-101010--|
G#||--5-55-555--8--8-8--8-8-8---8-88-888--10-1010-101010--|
C#||------------8--8-8--8-8-8---7-77-777--10-1010-101010--|


D#||----------------------------------------------------|
A#||----------------------------------------------------|
F#||---------------------------7-77-777-----------------|
C#||--8-88-888-10-1010-101010--7-77-777-----------------|
G#||--8-88-888-10-1010-101010--5-55-555-----------------|
C#||--8-88-888-10-1010-101010------------x-x-x-x-x-x-x--|



Outro
Guitar 1:
D#||---------------------------------------------------------------------|
A#||---------------------------------------------------------------------|
F#||---------------------------------------------------------------------|
C#||--7-\-----------------------------7-\--------------------------------|
G#||--5-\--0-0-0-----0-0-0-0----0-3/5-5-\--0-0-0-0-----0-0-0-0----8-5-7--|
C#||-------0-0-0-----0-0-0-0----0-3/5------0-0-0-0-----0-0-0-0----8-5-7--|
           . . .     . . . .               . . . .     . . . .          

Guitar 2:
D#||-------------------------------------------|------------------------------------|
A#||-------------------------------------------|------------------------------------|
F#||----------------------------------9-10-----|------------------------------------|
C#||-------------------------------10------10--|---------------------7---5---3---5--|
G#||------8------10-------7--------------------|------8------10------8---7---5---7--|
C#||--0-----10-0----10-0-------8-8-------------|--0-----10-0----10-0----------------|
               .       .       . . .                       .       .

Guitar 1/2:
D#||-----------------------------------------------------------------------------|
A#||-----------------------------------------------------------------------------|
F#||-----------------------------------------------------------------------------|
C#||--6---------------------------------------------------------------------7-\--|
G#||--4---0-0-0-0-----0-0-0-0-----0-5-7-8---8-8-8-8-----8-10-10-10----8-7-5-5-\--|
C#||------0-0-0-0-----0-0-0-0-----0-5-7-8---8-8-8-8-----8-10-10-10----8-7-5------|
          . . . .     . . . .               . . . .     . .  .  .





Tablature Legend
----------------
 h   hammer-on
 p   pull-off
 b   bend
 pb  pre-bend
 r   release bend
 ~   hold / vibrato
 .   palm mute
 /   slide up
 \   slide down
 *   pinch harmonic
 '   natural harmonic
 x   mute note
 T   tap
I want to post or [tab]
guest
You may want to rate the tab now too:
select rating
Please do not post tabs as comments. Select "correction" instead!