Oops, an error
Loading. Please wait.

Medication Tab

ver2
ver2

Whole song

More versions @911Tabs.com
480 views 1 this week
no commentswrite comment
1 2 3 4 5
excellent!
x 1
Autoscroll
+/-
esc
set tempo
stop
Contributor
Difficulty
Tuning
intermediate
C# G# C# F# A# D#
Hey! There's an official Ultimate Guitar app which is ideal
for learning songs when you're away from computer. Get the app
WARNING: You are trying to view
                                    content from Ultimate-Guitar.com
                                    in an unauthorized application,
                                    which is prohibited.

                                    Please use an official Ultimate
                                    Guitar Tabs application for iPhone,
                                    iPad or Android to access legitimate
                                    chords, guitar, bass, and drum tabs
                                    from Ultimate-Guitar.com database.

                                    Type "ultimate guitar tabs" in Apple
                                    App Store's or Android Market's
                                    search to find the application.
Tabbed by: Joshua Garcia (joshuag523@aol.com)

Tabs for the song: Medication by Silverstein
Please rate and let me know if you have any corrections. Thank you.


** NOTE - This was taken from my full album tab, which can be found here: 
http://tabs.ultimate-guitar.com/s/silverstein/rescue_album_tab.htm **


Tuning: Drop C# (C# G# C# F# A# D#)


Intro
Guitar 1:
D#||------------------------------------------------------------------|
A#||------------------------------------------------------------------|
F#||------------------------------------------------------------------|
C#||---0---0---0~-----------0~--------------8---8---8~-----------8~---| x4
G#||---0---0---0~-----------0~--------------8---8---8~-----------8~---|
C#||---0---0---0~-----------0~--------------8---8---8~-----------8~---|


Guitar 2:
D#||------------------------------------------------------------------------------------------|
A#||-------------------------------------------------------------13--11--------13-------------|
F#||------------10---9~-----9--10---------------------------------------------------14b15r14~-| x3
C#||--(0---0)----------------------10~------12--10--12~------------------12-------------------|
G#||--(0---0)---------------------------------------------------------------------------------|
C#||--(0---0)---------------------------------------------------------------------------------|


D#||--------------------------------------------------------------------------------------|
A#||-------------------------------------------------------------13--11-------------------|
F#||------------10---9~-----9--10---------9~---9------------------------------------'7~---|
C#||--(0---0)----------------------10~-----------10-10-10-10-------------12~--------------|
G#||--(0---0)-----------------------------------------------------------------------------|
C#||--(0---0)-----------------------------------------------------------------------------|



Verse
Guitar 1:
D#||------------------------------------------------|
A#||------------------------------------------------|
F#||------------------------------------------------|
C#||--10------10------10-10--10------10------10-10--|
G#||--8--8888-8--8888-8--8---7--7777-7--7777-7--7---|
C#||------------------------------------------------|
         ....    ....           ....    ....


Guitar 2:
D#||-----------------------------------------------|
A#||-----------------------------------------------|
F#||-----------------------------------------------|
C#||--7--------------------------------------------|
G#||--8--------------------------------------------|
C#||-----------------------------------------------|


Guitar 1/2:
D#||----------------------------------------|
A#||----------------------------------------|
F#||----------------------------------------|
C#||--10-10---10-10-10---10-10-10---3/5--5--|
G#||--8--8----8--8--8----8--8--8----3/5--5--|
C#||--------------------------------3/5--5--|


Guitar 1:
D#||------------------------------------------------|
A#||------------------------------------------------|
F#||------------------------------------------------|
C#||--10------10------10-10--10------10------10-10--|
G#||--8--8888-8--8888-8--8---7--7777-7--7777-7--7---|
C#||------------------------------------------------|
         ....    ....           ....    ....


Guitar 2:
D#||-----------------------------------------------|
A#||-----------------------------------------------|
F#||-----------------------------------------------|
C#||--7--------------------------------------------|
G#||--8--------------------------------------------|
C#||-----------------------------------------------|


Guitar 1:
D#||------------------------------------------|
A#||------------------------------------------|
F#||--------------------------------10/12-12--|
C#||--10-10---10-10-10---10-10-10---x-/x--x---|
G#||--8--8----8--8--8----8--8--8----8-/10-10--|
C#||------------------------------------------|


Guitar 2:
D#||----------------------------------------|
A#||----------------------------------------|
F#||----------------------------------------|
C#||--10-10---10-10-10---10-10-10---3/5--5--|
G#||--8--8----8--8--8----8--8--8----3/5--5--|
C#||--------------------------------3/5--5--|



Pre-Chorus
Guitar 1:
D#||------------------------------------------------------------------------------------|
A#||------------------------------------------------------------------------------------|
F#||------------------------------------------------------------------------------------|
C#||-------10------------10------------10------------10------------10------------10-----|
G#||----8------8------8------8------8------8------8------8------8------8------8------8--|
C#||--0-------------8-------------0-------------8-------------0-------------8-----------|


Guitar 2:
D#||----------------------------------------------------------------------------|
A#||----------------------------------------------------------------------------|
F#||----------------------------------------------------------------------------|
C#||--00---000---088---888---800---000---088---888---800---000---088---888---8--|
G#||--00---000---088---888---800---000---088---888---800---000---088---888---8--|
C#||--00---000---088---888---800---000---088---888---800---000---088---888---8--|


Guitar 1/2:
A#||----------------------------------------|
F#||----------------------------------------|
C#||--10-10---10-9-9---9-10-10---10-12-12---|
G#||--x--x----x--x-x---x-x--x----x--x--x----|
C#||--8--8----8--7-7---7-8--8----8--10-10---|
C#||----------------------------------------|



Verse
Guitar 1:
D#||------------------------------------------------|
A#||------------------------------------------------|
F#||------------------------------------------------|
C#||--10------10------10-10--10------10------10-10--|
G#||--8--8888-8--8888-8--8---7--7777-7--7777-7--7---|
C#||------------------------------------------------|
         ....    ....           ....    ....


Guitar 2:
D#||-----------------------------------------------|
A#||-----------------------------------------------|
F#||-----------------------------------------------|
C#||--7--------------------------------pick--------|
G#||--8-----------------------------------slide----|
C#||-----------------------------------------------|


Guitar 1/2:
D#||----------------------------------------|
A#||----------------------------------------|
F#||----------------------------------------|
C#||--10-10---10-10-10---10-10-10---3/5--5--|
G#||--8--8----8--8--8----8--8--8----3/5--5--|
C#||--------------------------------3/5--5--|


D#||------------------------------------------------|
A#||------------------------------------------------|
F#||------------------------------------------------|
C#||--10------10------10-10--10------10------10-10--|
G#||--8--8888-8--8888-8--8---7--7777-7--7777-7--7---|
C#||------------------------------------------------|
         ....    ....           ....    ....

D#||------------------------------------------|
A#||------------------------------------------|
F#||--------------------------------10/12-12--|
C#||--10-10---10-10-10---10-10-10---x-/x--x---|
G#||--8--8----8--8--8----8--8--8----8-/10-10--|
C#||------------------------------------------|



Pre-Chorus
Guitar 1:
D#||------------------------------------------------------------------------------------|
A#||------------------------------------------------------------------------------------|
F#||------------------------------------------------------------------------------------|
C#||-------10------------10------------10------------10------------10------------10-----|
G#||----8------8------8------8------8------8------8------8------8------8------8------8--|
C#||--0-------------8-------------0-------------8-------------0-------------8-----------|


Guitar 2:
D#||----------------------------------------------------------------------------|
A#||----------------------------------------------------------------------------|
F#||----------------------------------------------------------------------------|
C#||--00---000---088---888---800---000---088---888---800---000---088---888---8--|
G#||--00---000---088---888---800---000---088---888---800---000---088---888---8--|
C#||--00---000---088---888---800---000---088---888---800---000---088---888---8--|


Guitar 1/2:
A#||----------------------------------------|
F#||----------------------------------------|
C#||--10-10---10-9-9---9-10-10---10-12-12---|
G#||--x--x----x--x-x---x-x--x----x--x--x----|
C#||--8--8----8--7-7---7-8--8----8--10-10---|
C#||----------------------------------------|



Chorus:
Guitar 1/2:
D#||--------------------------------------------------------------------|
A#||--------------------------------------------------------------------|
F#||--------------------------------------------------------------------|
C#||---7h8p7-----------7h8p7--------------------------------------------|
G#||---------------------------------5h8p5---4-----5h8p5-4---4---7-8-\--|
C#||---------0-0-----0-------0---0---------0-----0----------------------|
             .       .                     .     .

D#||-----------------------------------|-------------------------------------------|
A#||-----------------------------------|-------------------------------------------|
F#||-----------------------------------|-------------------------------------------|
C#||--2-3-----------2-3----------2-3---|--5----5----5----5----8----8----7----7-----| x2
G#||--4-5---0---0---4-5---0---0--4-5---|--5----5----5----5----8----8----7----7-----|
C#||--------0---0---------0---0--------|--5-55-5-55-5-55-5-55-8-88-8-88-7-77-7-77--|
            .   .         .   .             ..   ..   ..   ..   ..   ..   ..   ..



Verse
Guitar 1:
D#||------------------------------------------------|
A#||------------------------------------------------|
F#||------------------------------------------------|
C#||--10------10------10-10--10------10------10-10--|
G#||--8--8888-8--8888-8--8---7--7777-7--7777-7--7---|
C#||------------------------------------------------|
         ....    ....           ....    ....


Guitar 2:
D#||-----------------------------------------------|
A#||-----------------------------------------------|
F#||-----------------------------------------------|
C#||--7--------------------------------------------|
G#||--8--------------------------------------------|
C#||-----------------------------------------------|


Guitar 1/2:
D#||----------------------------------------|
A#||----------------------------------------|
F#||----------------------------------------|
C#||--10-10---10-10-10---10-10-10---3/5--5--|
G#||--8--8----8--8--8----8--8--8----3/5--5--|
C#||--------------------------------3/5--5--|


Guitar 1/2:
D#||------------------------------------------------|
A#||------------------------------------------------|
F#||------------------------------------------------|
C#||--10------10------10-10--10------10------10-10--|
G#||--8--8888-8--8888-8--8---7--7777-7--7777-7--7---|
C#||------------------------------------------------|
         ....    ....           ....    ....


D#||------------------------------------------|
A#||------------------------------------------|
F#||--------------------------------10/12-12--|
C#||--10-10---10-10-10---10-10-10---x-/x--x---|
G#||--8--8----8--8--8----8--8--8----8-/10-10--|
C#||------------------------------------------|



Pre-Chorus
Guitar 1:
D#||------------------------------------------------------------------------------------|
A#||------------------------------------------------------------------------------------|
F#||------------------------------------------------------------------------------------|
C#||-------10------------10------------10------------10------------10------------10-----|
G#||----8------8------8------8------8------8------8------8------8------8------8------8--|
C#||--0-------------8-------------0-------------8-------------0-------------8-----------|


Guitar 2:
D#||----------------------------------------------------------------------------|
A#||----------------------------------------------------------------------------|
F#||----------------------------------------------------------------------------|
C#||--00---000---088---888---800---000---088---888---800---000---088---888---8--|
G#||--00---000---088---888---800---000---088---888---800---000---088---888---8--|
C#||--00---000---088---888---800---000---088---888---800---000---088---888---8--|


Guitar 1/2:
A#||----------------------------------------|
F#||----------------------------------------|
C#||--10-10---10-9-9---9-10-10---10-12-12---|
G#||--x--x----x--x-x---x-x--x----x--x--x----|
C#||--8--8----8--7-7---7-8--8----8--10-10---|
C#||----------------------------------------|



Chorus:
Guitar 1/2:
D#||--------------------------------------------------------------------|
A#||--------------------------------------------------------------------|
F#||--------------------------------------------------------------------|
C#||---7h8p7-----------7h8p7--------------------------------------------|
G#||---------------------------------5h8p5---4-----5h8p5-4---4---7-8-\--|
C#||---------0-0-----0-------0---0---------0-----0----------------------|
             .       .                     .     .

D#||-----------------------------------|-------------------------------------------|
A#||-----------------------------------|-------------------------------------------|
F#||-----------------------------------|-------------------------------------------|
C#||--2-3-----------2-3----------2-3---|--5----5----5----5----8----8----7----7-----|
G#||--4-5---0---0---4-5---0---0--4-5---|--5----5----5----5----8----8----7----7-----|
C#||--------0---0---------0---0--------|--5-55-5-55-5-55-5-55-8-88-8-88-7-77-7-77--|
            .   .         .   .             ..   ..   ..   ..   ..   ..   ..   ..

D#||--------------------------------------------------------------------|
A#||--------------------------------------------------------------------|
F#||--------------------------------------------------------------------|
C#||---7h8p7-----------7h8p7--------------------------------------------|
G#||---------------------------------5h8p5---4-----5h8p5-4---4---7-8-\--|
C#||---------0-0-----0-------0---0---------0-----0----------------------|
             .       .                     .     .

D#||-----------------------------------|
A#||-----------------------------------|
F#||-----------------------------------|
C#||--2-3-----------2-3----------2-3---|
G#||--4-5---0---0---4-5---0---0--4-5---|
C#||--------0---0---------0---0--------|
            .   .         .   .


D#||---------------------------------------------------------------|
A#||---------------------------------------------------------------|
F#||---------------------------------------------------------------|
C#||--5----5----5----5----5----5----8----8----8----7----7----7-----|
G#||--5----5----5----5----5----5----8----8----8----7----7----7-----|
C#||--5-55-5-55-5-55-5-55-5-55-5-55-8-88-8-88-8-88-7-77-7-77-7-77--|
        ..   ..   ..   ..   ..   ..   ..   ..   ..   ..   ..   ..


Bridge
Guitar 1/2:
D#||---------------------------------------------|
A#||---------------------------------------------|
F#||---------------------------------------------|
C#||--2-3-----------2-3-----------777777555555---| x2
G#||--4-5---0---0---4-5---0---0---888888777777---|
C#||--------0---0---------0---0------------------|


Guitar 1:
D#||--------------------------------------------------------------------------|
A#||--------------------------------------------------------------------------|
F#||--15---15-15-15-15--14---14-14-14-14--12---12-12-12-12--10---10-10-10-10--|
C#||--x----x--x--x--x---x----x--x--x--x---x----x--x--x--x---x----x--x--x--x---|
G#||--13---13-13-13-13--12---12-12-12-12--10---10-10-10-10--8----8--8--8--8---|
C#||--------------------------------------------------------------------------|


D#||--------------------------------------------------------------------------|
A#||--------------------------------------------------------------------------|
F#||--15---15-15-15-15--14---14-14-14-14--12---12-12-12-12--14---14-14-14-14--|
C#||--x----x--x--x--x---x----x--x--x--x---x----x--x--x--x---x----x--x--x--x---|
G#||--13---13-13-13-13--12---12-12-12-12--10---10-10-10-10--12---12-12-12-12--|
C#||--------------------------------------------------------------------------|


Guitar 2:
D#||----------------------------------------------------------------|
A#||----------------------------------------------------------------|
F#||----------------------------------------------------------------|
C#||--5--55555--55555--5555--7--7777--8--88888--88888--88888--8888--|
G#||--5--55555--55555--5555--7--7777--8--88888--88888--88888--8888--|
C#||--5--55555--55555--5555--7--7777--8--88888--88888--88888--8888--|


Guitar 1/2:
D#||---------------------------------------------|
A#||---------------------------------------------|
F#||---------------------------------------------|
C#||--2-3-----------2-3-----------777777555555---| x2
G#||--4-5---0---0---4-5---0---0---888888777777---|
C#||--------0---0---------0---0------------------|


Guitar 1:
D#||--------------------------------------------------------------------------|
A#||--------------------------------------------------------------------------|
F#||--15---15-15-15-15--14---14-14-14-14--12---12-12-12-12--10---10-10-10-10--|
C#||--x----x--x--x--x---x----x--x--x--x---x----x--x--x--x---x----x--x--x--x---|
G#||--13---13-13-13-13--12---12-12-12-12--10---10-10-10-10--8----8--8--8--8---|
C#||--------------------------------------------------------------------------|


D#||--------------------------------------------------------------------------|
A#||--------------------------------------------------------------------------|
F#||--15---15-15-15-15--14---14-14-14-14--12---12-12-12-12--14---14-14-14-14--|
C#||--x----x--x--x--x---x----x--x--x--x---x----x--x--x--x---x----x--x--x--x---|
G#||--13---13-13-13-13--12---12-12-12-12--10---10-10-10-10--12---12-12-12-12--|
C#||--------------------------------------------------------------------------|


D#||--------------------------------------------------------------------------|
A#||--------------------------------------------------------------------------|
F#||--15---15-15-15-15--14---14-14-14-14--12---12-12-12-12--14---14-14-14-14--|
C#||--x----x--x--x--x---x----x--x--x--x---x----x--x--x--x---x----x--x--x--x---|
G#||--13---13-13-13-13--12---12-12-12-12--10---10-10-10-10--12---12-12-12-12--|
C#||--------------------------------------------------------------------------|


D#||-------------------------------------------|
A#||-------------------------------------------|
F#||--10---10-10-10-10--12---12-12-12-12--10~--|
C#||--x----x--x--x--x---x----x--x--x--x---x----|
G#||--8----8--8--8--8---10---10-10-10-10--8----|
C#||-------------------------------------------|


Guitar 2:
D#||----------------------------------------------------------------|
A#||----------------------------------------------------------------|
F#||----------------------------------------------------------------|
C#||--5--55555--55555--5555--7--7777--8--88888--88888--88888--8888--|
G#||--5--55555--55555--5555--7--7777--8--88888--88888--88888--8888--|
C#||--5--55555--55555--5555--7--7777--8--88888--88888--88888--8888--|


D#||-------------------------------------------------------|
A#||-------------------------------------------------------|
F#||-------------------------------------------------------|
C#||--5--55555--55555--5555--7--7777--8--88888--88888--8~--|
G#||--5--55555--55555--5555--7--7777--8--88888--88888--8~--|
C#||--5--55555--55555--5555--7--7777--8--88888--88888--8~--|



Interlude
Guitar 1:
D#||-----------------------------------------|-------------------------------------------|
A#||-----------------------------------------|-------------------------------------------|
F#||-----------10------9------9------9-------|-----------10------9------10------12-------|
C#||------10------10-----10-----10-----10----|------10------10-----10------10------10----|
G#||----8----8-------8------8------8------8--|----8----8-------8------8-------8-------8--|
C#||--0--------------------------------------|--8----------------------------------------|


D#||-----------------------------------------|-------------------------------------|
A#||-----------------------------------------|-------------------------------------|
F#||-----------10------9------9------9-------|-----------10------9------10----12~--|
C#||------10------10-----10-----10-----10----|------10------10-----10------10------|
G#||----8----8-------8------8------8------8--|----8----8-------8------8------------|
C#||--0--------------------------------------|--8----------------------------------|



Guitar 2:
D#||---------------------|--------------------|---------------------|
A#||---------------------|--------------------|---------------------|
F#||---------------------|--------------------|---------------------|
C#||--------3---2---3~---|-------3---2--------|--------3---2---3~---|
G#||---/5----------------|---1-----------3~---|---/5----------------|
C#||---------------------|--------------------|---------------------|



Guitar 1:
D#||-----------------------------------------|-------------------------------------------|
A#||-----------------------------------------|-------------------------------------------|
F#||-----------10------9------9------9-------|-----------10------9------10------12-------|
C#||------10------10-----10-----10-----10----|------10------10-----10------10------10----|
G#||----8----8-------8------8------8------8--|----8----8-------8------8-------8-------8--|
C#||--0--------------------------------------|--8----------------------------------------|


D#||-----------------------------------------|
A#||-----------------------------------------|
F#||-----------10------9------9------9-------|
C#||------10------10-----10-----10-----10----|
G#||----8----8-------8------8------8------8--|
C#||--0--------------------------------------|


Guitar 1/2:
D#||-------------------------------------------|
A#||-------------------------------------------|
F#||---------------10~--\----------------------|
C#||--------10---------------3-3-3-3-3--5-5-5--|
G#||------------8------------3-3-3-3-3--5-5-5--|
C#||--8--8-------------------3-3-3-3-3--5-5-5--|
      .  .  .   .            . . . . .


Pre-Outro
Guitar 2:
D#||------------------------------------------------------|
A#||------------------------------------------------------|
F#||------------------------------------------------------|
C#||--------3---2---3~---3---2-----------3---2------------|
G#||---/5------------------------3---1-----------3---1~---|
C#||------------------------------------------------------|


D#||---------------------------------|
A#||---------------------------------|
F#||---------------------------------|
C#||--------3---2---3~---3---2-------|
G#||---/5------------------------3---|
C#||---------------------------------|


Guitar 1:
D#||-----------------------------------------|-------------------------------------------|
A#||-----------------------------------------|-------------------------------------------|
F#||-----------10------9------9------9-------|-----------10------9------10------12-------|
C#||------10------10-----10-----10-----10----|------10------10-----10------10------10----|
G#||----8----8-------8------8------8------8--|----8----8-------8------8-------8-------8--|
C#||--0--------------------------------------|--8----------------------------------------|


D#||-----------------------------------------|
A#||-----------------------------------------|
F#||-----------10------9------9------9-------|
C#||------10------10-----10-----10-----10----|
G#||----8----8-------8------8------8------8--|
C#||--0--------------------------------------|


Guitar 1/2:
D#||-------------------------------------------|
A#||-------------------------------------------|
F#||---------------10~--\----------------------|
C#||--------10---------------3-3-3-3-3--5-5-5--| x2
G#||------------8------------3-3-3-3-3--5-5-5--|
C#||--8--8-------------------3-3-3-3-3--5-5-5--|
      .  .  .   .            . . . . .


Outro
Guitar 2:
D#||-----------------------------------------------------------------|
A#||-----------------------------------------------------------------|
F#||-----------------------------------------------------------------|
C#||--------3---2---3~---3---2-----------3---2-----------3---2-------|
G#||---/5------------------------3---1-----------3---1-----------3---|
C#||-----------------------------------------------------------------|


D#||---------------------------------|
A#||---------------------------------|
F#||---------------------------------|
C#||--------3---2---3~---3---2-------|
G#||---/5------------------------3---|
C#||---------------------------------|


Guitar 1:
D#||-----------------------------------------|-------------------------------------------|
A#||-----------------------------------------|-------------------------------------------|
F#||-----------10------9------9------9-------|-----------10------9------10------12-------|
C#||------10------10-----10-----10-----10----|------10------10-----10------10------10----|
G#||----8----8-------8------8------8------8--|----8----8-------8------8-------8-------8--|
C#||--0--------------------------------------|--8----------------------------------------|


D#||-----------------------------------------|
A#||-----------------------------------------|
F#||-----------10------9------9------9-------|
C#||------10------10-----10-----10-----10----|
G#||----8----8-------8------8------8------8--|
C#||--0--------------------------------------|


Guitar 1/2:
D#||------------------------------------------------|
A#||------------------------------------------------|
F#||---------------10~--\---------------------------|
C#||--------10---------------3-3-3-3-3--5-5-5--0~---|
G#||------------8------------3-3-3-3-3--5-5-5--0~---|
C#||--8--8-------------------3-3-3-3-3--5-5-5--0~---|
      .  .  .   .            . . . . .




Tablature Legend
----------------
 h   hammer-on
 p   pull-off
 b   bend
 pb  pre-bend
 r   release bend
 ~   hold / vibrato
 .   palm mute
 /   slide up
 \   slide down
 *   pinch harmonic
 '   natural harmonic
 x   mute note
 T   tap
comments
We did not receive enough feedback on this tab! Please rate:
print report bad tab
1 2 3 4 5
I want to post or [tab]
guest
You may want to rate the tab now too:
select rating
Please do not post tabs as comments. Select "correction" instead!