Oops, an error
Loading. Please wait.

My Heroine Tab

ver3
ver3

Whole song

More versions @911Tabs.com
324,224 views 448 this week
67 commentsread comments
1 2 3 4 5
excellent!
x 187
Autoscroll
+/-
esc
set tempo
stop
Contributor
WARNING: You are trying to view
                                    content from Ultimate-Guitar.com
                                    in an unauthorized application,
                                    which is prohibited.

                                    Please use an official Ultimate
                                    Guitar Tabs application for iPhone,
                                    iPad or Android to access legitimate
                                    chords, guitar, bass, and drum tabs
                                    from Ultimate-Guitar.com database.

                                    Type "ultimate guitar tabs" in Apple
                                    App Store's or Android Market's
                                    search to find the application.
Artist: Silverstein
Song: My Heroine
Cd: Discovering the Waterfront
Tuning: Standard
Low to High
(EADGBe)
=========================================================================
Alright I have officailly updated this so it is 100%
everything sounds just like the song I'm positive
I'm sorry it took so long but thanks.
=========================================================================
some people have been rating this 1* so i
only got to say please, please be fair
=========================================================================
I would like to thank Daniel Stapp(ver 2)
and HopeUnknownMB (ver1)
=========================================================================
Ive updated the intro bridge and pre-chorus
=========================================================================

GUITAR 1

|----------------------------------------------------|x4
|----------------------------------------------------|
|--------0-------------0-------------0-----0----0----|
|---9---------0---0---------0----0-------0----0-----0|
|-----10---10-------10---10--------9---9----9-----9--|
|-0-------------8-------------10---------------------|

|----------------------------------------|
|----------------------------------------|
|----------------------------------------|
|--------0------0-------------0------0---|
|---10-----10-----10-----9------9------9-|
|-8----8------8-------10---10-----10-----|
                                                    x2
-----------------------------------------------|
-----------------------------------------------|
---------------------------------12------12----|
----------0-------12----------------0-------0--|
----10------10-------10----10---------10-------|
-12----12------12-------12----12---------------|

pre-chorus-distorted
|-----------------------------------------------------|
|-----------------------------------------------------|
|---------------5--5-5--5-5-5-------------------------|
|-2--2-2--2-2-2-5--5-5--5-5-5-4--4-4--4-4-4-5-4-7-4-5-|
|-2--2-2--2-2-2-3--3-3--3-3-3-5--5-5--5-5-5-5-5-5-5-5-|
|-0--0-0--0-0-0---------------------------------------|

|-------------------------------------------------------|
|-------------------------------------------------------|
|---------------5--5-5--5-5-5---------------------------|
|-2--2-2--2-2-2-5--5-5--5-5-5-4--4-4--4-4-4-5-4-5-5-4---|
|-2--2-2--2-2-2-3--3-3--3-3-3-5--5-5--5-5-5-5-5-5-5-5---|
|-0--0-0--0-0-0---------------------------------------0-|

chorus
|-----------------------------------------------------------------|
|-----------------------------------------------------------------|
|-9-9-9-9-9-9-9-9-11-11-11-11-11-11-11-11-12-12-12-12-12-12-12-12-|
|-x-x-x-x-x-x-x-x--x--x--x--x--x--x--x--x--x--x--x--x--x--x--x--x-|
|-7-7-7-7-7-7-7-7--9--9--9--9--9--9--9--9-10-10-10-10-10-10-10-10-|
|-----------------------------------------------------------------|

|-------------------------|
|-------------------------|
|-------------------------|
|-12--12-10-10-9-9-7------|
|-------------------------|
|-------------------------|

|-----------------------------------------------------------------|
|-----------------------------------------------------------------|
|-9-9-9-9-9-9-9-9-11-11-11-11-11-11-11-11-12-12-12-12-12-12-12-12-|
|-x-x-x-x-x-x-x-x--x--x--x--x--x--x--x--x--x--x--x--x--x--x--x--x-|
|-7-7-7-7-7-7-7-7--9--9--9--9--9--9--9--9-10-10-10-10-10-10-10-10-|
|-----------------------------------------------------------------|

|-------------------------|
|-------------------------|
|-12-12-12-12-12-12-12-12-|
|--x--x--x--x--x--x--x--x-|
|-10-10-10-10-10-10-10-10-|
|-------------------------|

|-----------------------------------------------------------------|
|-----------------------------------------------------------------|
|-9-9-9-9-9-9-9-9-11-11-11-11-11-11-11-11-12-12-12-12-12-12-12-12-|
|-x-x-x-x-x-x-x-x--x--x--x--x--x--x--x--x--x--x--x--x--x--x--x--x-|
|-7-7-7-7-7-7-7-7--9--9--9--9--9--9--9--9-10-10-10-10-10-10-10-10-|
|-----------------------------------------------------------------|

|-------------------------|
|-------------------------|
|-12-12-12-12-12-12-12-12-|
|--x--x--x--x--x--x--x--x-|
|-10-10-10-10-10-10-10-10-|
|-------------------------|

|----------------------------------------------------------------------|
|----------------------------------------------------------------------|
|-9-9-9-9-9-9-9-9-9-9-9-9-9-9-9-9-11-7-7-7-7-7-7-7-7-7-7-7-7-7-7-7-7-7-|
|-x-x-x-x-x-x-x-x-x-x-x-x-x-x-x-x--x-7-7-7-7-7-7-7-7-7-7-7-7-7-7-7-7-7-|
|-7-7-7-7-7-7-7-7-7-7-7-7-7-7-7-7--9-5-5-5-5-5-5-5-5-5-5-5-5-5-5-5-5-5-|
|------------------------------------.-.-.-.-.-.-.-.-------------------|

pre-chorus-distorted
|----------------------------------------------------|
|----------------------------------------------------|
|---------------5--5-5--5-5-5-7--7-7--7-7-7----------|
|-2--2-2--2-2-2-5--5-5--5-5-5-7--7-7--7-7-7-5-4-7-4-5|
|-2--2-2--2-2-2-3--3-3--3-3-3-5--5-5--5-5-5-5-4-7-4-5|
|-0--0-0--0-0-0-----------------------------3-2-5-2-3|

|-------------------------------------------------------|
|-------------------------------------------------------|
|---------------5--5-5--5-5-5-7--7-7--7-7-7-------------|
|-2--2-2--2-2-2-5--5-5--5-5-5-7--7-7--7-7-7-5-5-4-5-4---|
|-2--2-2--2-2-2-3--3-3--3-3-3-5--5-5--5-5-5-5-5-4-5-4---|
|-0--0-0--0-0-0-----------------------------3-3-2-3-2p0-|

chorus
|-----------------------------------------------------------------|
|-----------------------------------------------------------------|
|-9-9-9-9-9-9-9-9-11-11-11-11-11-11-11-11-12-12-12-12-12-12-12-12-|
|-x-x-x-x-x-x-x-x--x--x--x--x--x--x--x--x--x--x--x--x--x--x--x--x-|
|-7-7-7-7-7-7-7-7--9--9--9--9--9--9--9--9-10-10-10-10-10-10-10-10-|
|-----------------------------------------------------------------|

|-------------------------|
|-------------------------|
|-------------------------|
|-12--12-10-10-9-9-7------|
|-------------------------|
|-------------------------|

|-----------------------------------------------------------------|
|-----------------------------------------------------------------|
|-9-9-9-9-9-9-9-9-11-11-11-11-11-11-11-11-12-12-12-12-12-12-12-12-|
|-x-x-x-x-x-x-x-x--x--x--x--x--x--x--x--x--x--x--x--x--x--x--x--x-|
|-7-7-7-7-7-7-7-7--9--9--9--9--9--9--9--9-10-10-10-10-10-10-10-10-|
|-----------------------------------------------------------------|

|-------------------------|
|-------------------------|
|-12-12-12-12-12-12-12-12-|
|--x--x--x--x--x--x--x--x-|
|-10-10-10-10-10-10-10-10-|
|-------------------------|

|-----------------------------------------------------------------|
|-----------------------------------------------------------------|
|-9-9-9-9-9-9-9-9-11-11-11-11-11-11-11-11-12-12-12-12-12-12-12-12-|
|-x-x-x-x-x-x-x-x--x--x--x--x--x--x--x--x--x--x--x--x--x--x--x--x-|
|-7-7-7-7-7-7-7-7--9--9--9--9--9--9--9--9-10-10-10-10-10-10-10-10-|
|-----------------------------------------------------------------|

|-------------------------|
|-------------------------|
|-12-12-12-12-12-12-12-12-|
|--x--x--x--x--x--x--x--x-|
|-10-10-10-10-10-10-10-10-|
|-------------------------|

|----------------------------------------------------------------------|
|----------------------------------------------------------------------|
|-9-9-9-9-9-9-9-9-9-9-9-9-9-9-9-9-11-7-7-7-7-7-7-7-7-7-7-7-7-7-7-7-7-7-|
|-x-x-x-x-x-x-x-x-x-x-x-x-x-x-x-x--x-7-7-7-7-7-7-7-7-7-7-7-7-7-7-7-7-7-|
|-7-7-7-7-7-7-7-7-7-7-7-7-7-7-7-7--9-5-5-5-5-5-5-5-5-5-5-5-5-5-5-5-5-5-|
|------------------------------------.-.-.-.-.-.-.-.-------------------|

bridge
|-------------------------------------------------|
|-------------------------------------------------|
|-12-12-12-12-12-12-12-12-11-11-11-11-11-11-11-11-|
|--x--x--x--x--x--x--x--x--x--x--x--x--x--x--x--x-|
|-10-10-10-10-10-10-10-10--9--9--9--9--9--9--9--9-|
|-------------------------------------------------|

|-------------------------------------------------|
|-------------------------------------------------|
|-16-16-16-17-14-14-14-16-12-12-12-12-12-12-12-14-|
|--x--x--x--x--x--x--x--x--x--x--x--x--x--x--x--x-|
|-14-14-14-15-12-12-12-14-10-10-10-10-10-10-10-12-|
|-------------------------------------------------|

|-------------------------------------------------|
|-------------------------------------------------|
|-12-12-12-12-12-12-12-12-11-11-11-11-11-11-11-11-|
|--x--x--x--x--x--x--x--x--x--x--x--x--x--x--x--x-|
|-10-10-10-10-10-10-10-10--9--9--9--9--9--9--9--9-|
|-------------------------------------------------|

|-------------|
|-------------|
|-9----7----5-|
|-9----7----5-|
|-7----5----3-|
|-------------|

breakdown-clean
|----------------------------------------------------|x4
|----------------------------------------------------|
|--------0-------------0-------------0-----0----0----|
|---9---------0---0---------0----0-------0----0-----0|
|-----10---10-------10---10--------9---9----9-----9--|
|-0-------------8-------------10---------------------|

|----------------------------------------|
|----------------------------------------|
|----------------------------------------|
|--------0------0-------------0------0---|
|---10-----10-----10-----9------9------9-|
|-8----8------8-------10---10-----10-----|
                                                     x2
-----------------------------------------------|
-----------------------------------------------|
---------------------------------12------12----|
----------0-------12----------------0-------0--|
----10------10-------10----10---------10-------|
-12----12------12-------12----12---------------|

|---------------------------------|
|---------------------------------|
|-----------------7-7-7-7-7-7-7-7-|
|-2-2-2-2-2-2-2-2-7-7-7-7-7-7-7-7-|
|-2-2-2-2-2-2-2-2-5-5-5-5-5-5-5-5-|
|-0-0-0-0-0-0-0-0-----------------|
  . . . . . . . . . . . . . . . .

chorus
|-----------------------------------------------------------------|
|-----------------------------------------------------------------|
|-9-9-9-9-9-9-9-9-11-11-11-11-11-11-11-11-12-12-12-12-12-12-12-12-|
|-x-x-x-x-x-x-x-x--x--x--x--x--x--x--x--x--x--x--x--x--x--x--x--x-|
|-7-7-7-7-7-7-7-7--9--9--9--9--9--9--9--9-10-10-10-10-10-10-10-10-|
|-----------------------------------------------------------------|

|-------------------------|
|-------------------------|
|-------------------------|
|-12--12-10-10-9-9-7------|
|-------------------------|
|-------------------------|

|-----------------------------------------------------------------|
|-----------------------------------------------------------------|
|-9-9-9-9-9-9-9-9-11-11-11-11-11-11-11-11-12-12-12-12-12-12-12-12-|
|-x-x-x-x-x-x-x-x--x--x--x--x--x--x--x--x--x--x--x--x--x--x--x--x-|
|-7-7-7-7-7-7-7-7--9--9--9--9--9--9--9--9-10-10-10-10-10-10-10-10-|
|-----------------------------------------------------------------|

|-------------------------|
|-------------------------|
|-12-12-12-12-12-12-12-12-|
|--x--x--x--x--x--x--x--x-|
|-10-10-10-10-10-10-10-10-|
|-------------------------|

|-----------------------------------------------------------------|
|-----------------------------------------------------------------|
|-9-9-9-9-9-9-9-9-11-11-11-11-11-11-11-11-12-12-12-12-12-12-12-12-|
|-x-x-x-x-x-x-x-x--x--x--x--x--x--x--x--x--x--x--x--x--x--x--x--x-|
|-7-7-7-7-7-7-7-7--9--9--9--9--9--9--9--9-10-10-10-10-10-10-10-10-|
|-----------------------------------------------------------------|

|-------------------------|
|-------------------------|
|-12-12-12-12-12-12-12-12-|
|--x--x--x--x--x--x--x--x-|
|-10-10-10-10-10-10-10-10-|
|-------------------------|

|----------------------------------------------------------------------|
|----------------------------------------------------------------------|
|-9-9-9-9-9-9-9-9-9-9-9-9-9-9-9-9-11-7-7-7-7-7-7-7-7-7-7-7-7-7-7-7-7-7-|
|-x-x-x-x-x-x-x-x-x-x-x-x-x-x-x-x--x-7-7-7-7-7-7-7-7-7-7-7-7-7-7-7-7-7-|
|-7-7-7-7-7-7-7-7-7-7-7-7-7-7-7-7--9-5-5-5-5-5-5-5-5-5-5-5-5-5-5-5-5-5-|
|------------------------------------.-.-.-.-.-.-.-.-------------------|

outro
|----------------------------------------------------|
|----------------------------------------------------|
|---------------5--5-5--5-5-5-7--7-7--7-7-7----------|
|-2--2-2--2-2-2-5--5-5--5-5-5-7--7-7--7-7-7-5-4-7-4-5|
|-2--2-2--2-2-2-3--3-3--3-3-3-5--5-5--5-5-5-5-4-7-4-5|
|-0--0-0--0-0-0-----------------------------3-2-5-2-3|

===========================================================================

GUITAR 2

intro-slightly distroted-listen for
timing
|-------------|x2
|-------------|
|-9----5----7-|
|-9----5----7-|
|-7----3----5-|
|-------------|

|------------------|
|------------------|
|-5----7----9----7-|
|-5----7----9----7-|
|-3----5----7----5-|
|------------------|

|----------------------------------------|
|----------------------------------------|
|-5----7-----------------7-7-7-7-7-7-7-7-|
|-5----7-2-2-2-2-2-2-2-2-7-7-7-7-7-7-7-7-|
|-3----5-2-2-2-2-2-2-2-2-5-5-5-5-5-5-5-5-|
|--------0-0-0-0-0-0-0-0-----------------|
         . . . . . . . . . . . . . . . .

pre-chorus-distorted
|----------------------------------------------------|
|----------------------------------------------------|
|---------------5--5-5--5-5-5-7--7-7--7-7-7----------|
|-2--2-2--2-2-2-5--5-5--5-5-5-7--7-7--7-7-7-5-4-7-4-5|
|-2--2-2--2-2-2-3--3-3--3-3-3-5--5-5--5-5-5-5-4-7-4-5|
|-0--0-0--0-0-0-----------------------------3-2-5-2-3|

|-------------------------------------------------------|
|-------------------------------------------------------|
|---------------5--5-5--5-5-5-7--7-7--7-7-7-------------|
|-2--2-2--2-2-2-5--5-5--5-5-5-7--7-7--7-7-7-5-5-4-5-4---|
|-2--2-2--2-2-2-3--3-3--3-3-3-5--5-5--5-5-5-5-5-4-5-4---|
|-0--0-0--0-0-0-----------------------------3-3-2-3-2p0-|

chorus
|---------------------------------|x3
|---------------------------------|
|-5-5-5-5-7-7-7-7-9-9-9-9-9-9-9-9-|
|-5-5-5-5-7-7-7-7-9-9-9-9-9-9-9-9-|
|-3-3-3-3-5-5-5-5-7-7-7-7-7-7-7-7-|
|---------------------------------|

|---------------------------------------------------|
|---------------------------------------------------|
|-5-5-5-5-5-5-5-5-7-7-7-7-7-7-7-7-7-7-7-7-7-7-7-7-7-|
|-5-5-5-5-5-5-5-5-7-7-7-7-7-7-7-7-7-7-7-7-7-7-7-7-7-|
|-3-3-3-3-3-3-3-3-5-5-5-5-5-5-5-5-5-5-5-5-5-5-5-5-5-|
|-------------------.-.-.-.-.-.-.-.-----------------|

pre-chorus-distorted
|----------------------------------------------------|
|----------------------------------------------------|
|---------------5--5-5--5-5-5-7--7-7--7-7-7----------|
|-2--2-2--2-2-2-5--5-5--5-5-5-7--7-7--7-7-7-5-4-7-4-5|
|-2--2-2--2-2-2-3--3-3--3-3-3-5--5-5--5-5-5-5-4-7-4-5|
|-0--0-0--0-0-0-----------------------------3-2-5-2-3|

|-------------------------------------------------------|
|-------------------------------------------------------|
|---------------5--5-5--5-5-5-7--7-7--7-7-7-------------|
|-2--2-2--2-2-2-5--5-5--5-5-5-7--7-7--7-7-7-5-5-4-5-4---|
|-2--2-2--2-2-2-3--3-3--3-3-3-5--5-5--5-5-5-5-5-4-5-4---|
|-0--0-0--0-0-0-----------------------------3-3-2-3-2p0-|

chorus
|---------------------------------|x3
|---------------------------------|
|-5-5-5-5-7-7-7-7-9-9-9-9-9-9-9-9-|
|-5-5-5-5-7-7-7-7-9-9-9-9-9-9-9-9-|
|-3-3-3-3-5-5-5-5-7-7-7-7-7-7-7-7-|
|---------------------------------|

|---------------------------------------------------|
|---------------------------------------------------|
|-5-5-5-5-5-5-5-5-7-7-7-7-7-7-7-7-7-7-7-7-7-7-7-7-7-|
|-5-5-5-5-5-5-5-5-7-7-7-7-7-7-7-7-7-7-7-7-7-7-7-7-7-|
|-3-3-3-3-3-3-3-3-5-5-5-5-5-5-5-5-5-5-5-5-5-5-5-5-5-|
|-------------------.-.-.-.-.-.-.-.-----------------|

bridge
|------------------------------------------------|
|------------------------------------------------|
|-------------4--4--4--4--5--5--7--7--5--5--5-xx-|
|-2--2--2--2--4--4--4--4--5--5--7--7--5--5--5-xx-|
|-2--2--2--2--2--2--2--2--3--3--5--5--3--3--3-xx-|
|-0--0--0--0-------------------------------------|

|------------------------------------------------|
|------------------------------------------------|
|-------------4--4--4--4------9---7--------------|
|-2--2--2--2--4--4--4--4--2---9---7--------------|
|-2--2--2--2--2--2--2--2--2---7---5--------------|
|-0--0--0--0--------------0----------------------|

intro-slightly distroted-listen for
timing
|-------------|x2
|-------------|
|-9----5----7-|
|-9----5----7-|
|-7----3----5-|
|-------------|

|------------------|
|------------------|
|-5----7----9----7-|
|-5----7----9----7-|
|-3----5----7----5-|
|------------------|

|----------------------------------------|
|----------------------------------------|
|-5----7-----------------7-7-7-7-7-7-7-7-|
|-5----7-2-2-2-2-2-2-2-2-7-7-7-7-7-7-7-7-|
|-3----5-2-2-2-2-2-2-2-2-5-5-5-5-5-5-5-5-|
|--------0-0-0-0-0-0-0-0-----------------|
         . . . . . . . . . . . . . . . .

chorus
|---------------------------------|x3
|---------------------------------|
|-5-5-5-5-7-7-7-7-9-9-9-9-9-9-9-9-|
|-5-5-5-5-7-7-7-7-9-9-9-9-9-9-9-9-|
|-3-3-3-3-5-5-5-5-7-7-7-7-7-7-7-7-|
|---------------------------------|

|---------------------------------------------------|
|---------------------------------------------------|
|-5-5-5-5-5-5-5-5-7-7-7-7-7-7-7-7-7-7-7-7-7-7-7-7-7-|
|-5-5-5-5-5-5-5-5-7-7-7-7-7-7-7-7-7-7-7-7-7-7-7-7-7-|
|-3-3-3-3-3-3-3-3-5-5-5-5-5-5-5-5-5-5-5-5-5-5-5-5-5-|
|-------------------.-.-.-.-.-.-.-.-----------------|

outro-distorted
|----------------------------------------------------|
|----------------------------------------------------|
|---------------5--5-5--5-5-5-7--7-7--7-7-7----------|
|-2--2-2--2-2-2-5--5-5--5-5-5-7--7-7--7-7-7-5-4-7-4-5|
|-2--2-2--2-2-2-3--3-3--3-3-3-5--5-5--5-5-5-5-4-7-4-5|
|-0--0-0--0-0-0-----------------------------3-2-5-2-3|

===========================================================================

GUITAR 3

Im sure that there is more but for now
this is what i have. this also has a wierd
effect that makes it play faster near the end.

intro-gradually get really fast
(yes in the back of the boolet it says
Shane (lead singer) plays a third
guitar in this song.)
|----------[---------------------------------------------|
|-(15)-----[-(12)--------(12)--------(8)-------(8)-------|
|---(14)---[----(12)--------(12)-------(11)------(11)----|
|-----(12)-[-------(12)--------(12)-------(12)------(12--|
|----------[---------------------------------------------|
|----------[---------------------------------------------|

---------------------------------------------|xas many needed
-(15)-------(15)-------(15)-------(15)-------|
----(14)-------(14)-------(14)-------(14)----|
-------(12)-------(12)-------(12)-------(12)-|
---------------------------------------------|
---------------------------------------------|
===========================================================================
thanks
===========================================================================
lyrics

the drugs
begin
to peak
a smile
of joy
arrives in me
but sedation changes to
panic and nausea
and breath starts to shorten
and heart beats pound softer
you wont
try and save me
you just want to hurt me
and leave me desperate
you taught my heart
a sence i never knew i had
i can forget
the times that i was lost
and depressed
from the awful truth
how do you do it
your my heroine
you wont
leave me
alone
chisel
my heart out of stone
i give in every time
i bet you laugh
at the thought of me
thinking for myself
i bet you
believe
that im better off
with you than someone else
your face arrives again
a hope i had becomes surreal
but under your cover
more toture than pleasure
and just past your lips
theres more anger than laughter
not now
or froever
will i ever change you
i know that
to go on
ill break you my habbit
i will
save my
self
===========================================================================
there you go
| /  slide up
| \  slide down
| h  hammer-on
| p  pull-off
| ~  vibrato
| +  harmonic
| x  Mute note
============================================================================
comments
print report bad tab
67 comments total. Showing first comments.
0 reply
fret13 wrote on August 17 2006, 09:08 pm

how can this be one star its the same as ver 2 except it has the rest and its right im thinking whoever rated this one star is one of the other tabs autors i could be rong but mine isnt 1 star.

+4 reply
screamokid wrote on August 18 2006, 07:38 pm

e |---------------------------------------------------------|
B |---------------------------------------------------------|
G |---4---0-------------0-------------0------0------0-------|
D |-----5----5-0----0-5----5-0----0-4----4------4------4----|
A |--------------3-------------5-----------5------5------5--|
E |-0-------------------------------------------------------|


try this for the intro, i got bored like a week ago and figured it out its perfect and a little easier to play, but i gave it a 5 im gunna slap the ******* that rated it 1

0 reply
fret13 wrote on August 18 2006, 07:39 pm

thanks ill update it

I want to post or [tab]
guest
You may want to rate the tab now too:
select rating
Please do not post tabs as comments. Select "correction" instead!