Oops, an error
Loading. Please wait.

On Brave Mountains We Conquer Tab

1,670 views 15 this week
no commentswrite comment
1 2 3 4 5
excellent!
x 2
Autoscroll
+/-
esc
set tempo
stop
Contributor
Difficulty
Tuning
intermediate
C# G# C# F# A# D#
Hey! There's an official Ultimate Guitar app which is ideal
for learning songs when you're away from computer. Get the app
WARNING: You are trying to view
                                    content from Ultimate-Guitar.com
                                    in an unauthorized application,
                                    which is prohibited.

                                    Please use an official Ultimate
                                    Guitar Tabs application for iPhone,
                                    iPad or Android to access legitimate
                                    chords, guitar, bass, and drum tabs
                                    from Ultimate-Guitar.com database.

                                    Type "ultimate guitar tabs" in Apple
                                    App Store's or Android Market's
                                    search to find the application.
Tabbed by: Joshua Garcia (joshuag523@aol.com)

Tabs for the song: On Brave Mountains We Conquer by Silverstein
Please rate and let me know if you have any corrections. Thank you.


**For my tab of the whole album, go here:
http://tabs.ultimate-guitar.com/s/silverstein
/this_is_how_the_wind_shifts_album_tab.htm **


Tuning: Drop C# (C# G# C# F# A# D#)


Intro / Verse
Guitar 1:
D#||------------------------------------------|
A#||------------------------------------------|
F#||----7777777777777------777------777-------|
C#||--0-xxxxxxxxxxxxx-0-0--xxx-0-0--xxx-0--00-|
G#||--0-5555555555555-0-0--555-0-0--555-0--00-|
C#||--0---------------0-0------0-0------0--00-|


D#||----------------------------------------------------------|
A#||----------------------------------------------------------|
F#||--10101010101010101010101010------101010------101010------|
C#||--x-x-x-x-x-x-x-x-x-x-x-x-x--0-0--x-x-x--0-0--x-x-x--0--0-|
G#||--8-8-8-8-8-8-8-8-8-8-8-8-8--0-0--8-8-8--0-0--8-8-8--0--0-|
C#||-----------------------------0-0---------0-0---------0--0-|


Guitar 2:
D#||------------------------------------------|---------------------------------------|
A#||------------------------------------------|---------------------------------------|
F#||----7777777777777------777------777-------|--7777777777777------777------777------|
C#||--0-xxxxxxxxxxxxx-0-0--xxx-0-0--xxx-0--00-|--xxxxxxxxxxxxx-0-0--xxx-0-0--xxx-0--0-|
G#||--0-5555555555555-0-0--555-0-0--555-0--00-|--5555555555555-0-0--555-0-0--555-0--0-|
C#||--0---------------0-0------0-0------0--00-|----------------0-0------0-0------0--0-|



Guitar 1:
D#||---------------------------------------------------------------------|
A#||---------------------------------------------------------------------|
F#||-------10-9----------------------------------------------------------|
C#||--8~--------10-12-10-8-----------------------------------------------|
G#||-----------------------10/12--12--12121212/13---10--10101010/12~--\--|
C#||---------------------------------------------------------------------|


Guitar 2:
D#||---------------------------------------------------------------------|
A#||---------------------------------------------------------------------|
F#||---------------------------------------------------------------------|
C#||--8~-----------------------5~--------------------1~------------------|
G#||--8~-----------------------5~--------------------1~------------------|
C#||--8~-----------------------5~--------------------1~------------------|


Guitar 1/2:
D#||--------------------------------------------|
A#||--------------------------------------------|
F#||----7777777777777------777------------------|
C#||--0-xxxxxxxxxxxxx-0-0--xxx-0-0--x-x-x-x-x-x-|
G#||--0-5555555555555-0-0--555-0-0--x-x-x-x-x-x-|
C#||--0---------------0-0------0-0--x-x-x-x-x-x-|



Verse
Guitar 1:
D#||------------------------------------------|
A#||------------------------------------------|
F#||----7777777777777------777------777-------|
C#||--0-xxxxxxxxxxxxx-0-0--xxx-0-0--xxx-0--00-|
G#||--0-5555555555555-0-0--555-0-0--555-0--00-|
C#||--0---------------0-0------0-0------0--00-|


D#||----------------------------------------------------------|
A#||----------------------------------------------------------|
F#||--10101010101010101010101010------101010------101010------|
C#||--x-x-x-x-x-x-x-x-x-x-x-x-x--0-0--x-x-x--0-0--x-x-x--0--0-|
G#||--8-8-8-8-8-8-8-8-8-8-8-8-8--0-0--8-8-8--0-0--8-8-8--0--0-|
C#||-----------------------------0-0---------0-0---------0--0-|


Guitar 2:
D#||------------------------------------------|---------------------------------------|
A#||------------------------------------------|---------------------------------------|
F#||----7777777777777------777------777-------|--7777777777777------777------777------|
C#||--0-xxxxxxxxxxxxx-0-0--xxx-0-0--xxx-0--00-|--xxxxxxxxxxxxx-0-0--xxx-0-0--xxx-0--0-|
G#||--0-5555555555555-0-0--555-0-0--555-0--00-|--5555555555555-0-0--555-0-0--555-0--0-|
C#||--0---------------0-0------0-0------0--00-|----------------0-0------0-0------0--0-|



Guitar 1:
D#||----------------------------------------------------------------|
A#||----------------------------------------------------------------|
F#||-------10-9-----------------------------------------------------|
C#||--8~--------10-12-8--------------------------12--12121212121212-|
G#||--------------------10/12--12--12121212/13----------------------|
C#||----------------------------------------------------------------|


Guitar 2:
D#||----------------------------------------------------------------|
A#||----------------------------------------------------------------|
F#||----------------------------------------------------------------|
C#||--8~-----------------------5~----------------1~-----------------|
G#||--8~-----------------------5~----------------1~-----------------|
C#||--8~-----------------------5~----------------1~-----------------|


Guitar 1/2:
D#||----------------------------------------|------------|
A#||----------------------------------------|------------|
F#||----7777777777777------777--------------|------------|
C#||--0-xxxxxxxxxxxxx-0-0--xxx-0-0--3--5--7-|--8~-----7~-|
G#||--0-5555555555555-0-0--555-0-0--3--5--7-|--8~-----8~-|
C#||--0---------------0-0------0-0--3--5--7-|--8~-----7~-|



Chorus
Guitar 1:
D#||-------------------------------------|------------------------------------------------------|
A#||-------------------------------------|------------------------------------------------------|
F#||---------------9------10--1010--1010-|--10--10--9\-----10-9---------------------------------|
C#||--7---------------10--10--1010--1010-|----------------------10h12p10-------1010101010101010-|
G#||-----8--7\---------------------------|------------------------------10\12--1212121212121212-|
C#||-------------------------------------|------------------------------------------------------|


D#||------------------------------------|-----------------------------------------|
A#||----------------------5---6--66--66-|-----------------------------------------|
F#||--14\-10-9----5-5-5-----5-----------|--10101010---10-9~----7\5/10--1010--1010-|
C#||--x-\-x--x----x-x-x-----------------|--x-x-x-x----x--x------------------------|
G#||--12\-8--7----3-3-3-----------------|--8-8-8-8----8--7~-----------------------|
C#||------------------------------------|-----------------------------------------|


Guitar 2:
D#||---------------------------------------|-----------------------------------|
A#||---------------------------------------|-----------------------------------|
F#||--7--7------------------10--1010--1010-|--7--7--6--------------------------|
C#||--7--7--5--xx--xx-8--8--8---8-8---8-8--|--7--7--7--xx--xx-8--8--3--3333333-|
G#||--5--5--5--xx--xx-8--8--8---8-8---8-8--|--5--5--4--xx--xx-8--8--3--3333333-|
C#||--------5--xx--xx-8--8-----------------|-----------xx--xx-8--8--3--3333333-|


D#||---------------------------------------------------------------------|
A#||---------------------------------------------------------------------|
F#||------------------------------------7--7--6--66--66------------------|
C#||--0--0--5--55--55--8--8--3--33--33--7--7--7--77--77--8--8--3--33--33-|
G#||--0--0--5--55--55--8--8--3--33--33--5--5--4--44--44--8--8--3--33--33-|
C#||--0--0--5--55--55--8--8--3--33--33-------------------8--8--3--33--33-|



Verse
Guitar 1:
D#||------------------------------------------|
A#||------------------------------------------|
F#||----7777777777777------777------777-------|
C#||--0-xxxxxxxxxxxxx-0-0--xxx-0-0--xxx-0--00-|
G#||--0-5555555555555-0-0--555-0-0--555-0--00-|
C#||--0---------------0-0------0-0------0--00-|


D#||----------------------------------------------------------|
A#||----------------------------------------------------------|
F#||--10101010101010101010101010------101010------101010------|
C#||--x-x-x-x-x-x-x-x-x-x-x-x-x--0-0--x-x-x--0-0--x-x-x--0--0-|
G#||--8-8-8-8-8-8-8-8-8-8-8-8-8--0-0--8-8-8--0-0--8-8-8--0--0-|
C#||-----------------------------0-0---------0-0---------0--0-|


Guitar 2:
D#||------------------------------------------|---------------------------------------|
A#||------------------------------------------|---------------------------------------|
F#||----7777777777777------777------777-------|--7777777777777------777------777------|
C#||--0-xxxxxxxxxxxxx-0-0--xxx-0-0--xxx-0--00-|--xxxxxxxxxxxxx-0-0--xxx-0-0--xxx-0--0-|
G#||--0-5555555555555-0-0--555-0-0--555-0--00-|--5555555555555-0-0--555-0-0--555-0--0-|
C#||--0---------------0-0------0-0------0--00-|----------------0-0------0-0------0--0-|



Guitar 1:
D#||----------------------------------------------------------------|
A#||----------------------------------------------------------------|
F#||-------10-9-----------------------------------------------------|
C#||--8~--------10-12-8--------------------------12--12121212121212-|
G#||--------------------10/12--12--12121212/13----------------------|
C#||----------------------------------------------------------------|


Guitar 2:
D#||----------------------------------------------------------------|
A#||----------------------------------------------------------------|
F#||----------------------------------------------------------------|
C#||--8~-----------------------5~--------------------1~-------------|
G#||--8~-----------------------5~--------------------1~-------------|
C#||--8~-----------------------5~--------------------1~-------------|


Guitar 1/2:
D#||----------------------------------------|------------|
A#||----------------------------------------|------------|
F#||----7777777777777------777--------------|------------|
C#||--0-xxxxxxxxxxxxx-0-0--xxx-0-0--3--5--7-|--8~-----7~-|
G#||--0-5555555555555-0-0--555-0-0--3--5--7-|--8~-----8~-|
C#||--0---------------0-0------0-0--3--5--7-|--8~-----7~-|



Chorus
Guitar 1:
D#||-------------------------------------|------------------------------------------------------|
A#||-------------------------------------|------------------------------------------------------|
F#||---------------9------10--1010--1010-|--10--10--9\-----10-9---------------------------------|
C#||--7---------------10--10--1010--1010-|----------------------10h12p10-------1010101010101010-|
G#||-----8--7\---------------------------|------------------------------10\12--1212121212121212-|
C#||-------------------------------------|------------------------------------------------------|


D#||------------------------------------|-----------------------------------------|
A#||----------------------5---6--66--66-|-----------------------------------------|
F#||--14\-10-9----5-5-5-----5-----------|--10101010---10-9~----7\5/10--1010--1010-|
C#||--x-\-x--x----x-x-x-----------------|--x-x-x-x----x--x------------------------|
G#||--12\-8--7----3-3-3-----------------|--8-8-8-8----8--7~-----------------------|
C#||------------------------------------|-----------------------------------------|


Guitar 2:
D#||---------------------------------------|-----------------------------------|
A#||---------------------------------------|-----------------------------------|
F#||--7--7------------------10--1010--1010-|--7--7--6--------------------------|
C#||--7--7--5--xx--xx-8--8--8---8-8---8-8--|--7--7--7--xx--xx-8--8--3--3333333-|
G#||--5--5--5--xx--xx-8--8--8---8-8---8-8--|--5--5--4--xx--xx-8--8--3--3333333-|
C#||--------5--xx--xx-8--8-----------------|-----------xx--xx-8--8--3--3333333-|


D#||---------------------------------------------------------------------|
A#||---------------------------------------------------------------------|
F#||------------------------------------7--7--6--66--66------------------|
C#||--0--0--5--55--55--8--8--3--33--33--7--7--7--77--77--8--8--3--33--33-|
G#||--0--0--5--55--55--8--8--3--33--33--5--5--4--44--44--8--8--3--33--33-|
C#||--0--0--5--55--55--8--8--3--33--33-------------------8--8--3--33--33-|



Breakdown
Guitar 1:
D#||-----|------------------------------|------------------------------|
A#||-----|------------------------------|------------------------------|
F#||-----|------------------------------|------------------------------|
C#||--0~-|------------------------7-----|------7---7-----8-----8hh10-7-|
G#||--0~-|------5---5------5--------8-5-|------------------------------|
C#||--0~-|--0-----0----0-------0--------|--3-----3---5------5----------|
             .     .    .       .            .     .   .      .

D#||------------------------------|------------------------|
A#||------------------------------|------------------------|
F#||------------------------------|------------------------|
C#||------------------------7-----|------7---7-----------0-|
G#||------5---5------5--------8-5-|----------------8-----0-|
C#||--0-----0----0-------0--------|--3-----3---5------5--0-|
      .     .    .       .            .     .   .      .  .

Guitar 2:
D#||----------------------------------------------------|
A#||----------------------------------------------------|
F#||----------------------------------------------------|
C#||--0~--------'3~---------------x--'3~---x----------0-|
G#||--0~--------------------------------------'5~~~b--0-|
C#||--0~----------------------------------------------0-|
                                                      .


Guitar 1:
D#||------------------------------|-----------------------------|
A#||------------------------------|-----------------------------|
F#||------------------------------|-----------------------------|
C#||------------------------7-----|------7---7-----8-----8h10-7-|
G#||------5---5------5--------8-5-|-----------------------------|
C#||--0-----0----0-------0--------|--3-----3---5------5---------|
      .     .    .       .            .     .   .      .

D#||------------------------------|-----------------------------|
A#||------------------------------|-----------------------------|
F#||------------------------------|-----------------------------|
C#||------------------------7-----|------7---7------------------| x2
G#||------5---5------5--------8-5-|----------------8-----8h10-7-|
C#||--0-----0----0-------0--------|--3-----3---5------5---------|
      .     .    .       .            .     .   .      .


Guitar 2:
D#||------------------------------|-----------------------------|
A#||------------------------------|-----------------------------|
F#||------------------------------|-----------------------------|
C#||--0~----------------3~-----8~-|--0~---------------3~-----8~-|
G#||--0~----------------3~-----5~-|--0~---------------3~-----5~-|
C#||--0~----------------3~-----5~-|--0~---------------3~-----5~-|


D#||---------------------------------------|--------------------------------------|
A#||---------------------------------------|--------------------------------------|
F#||---------------------------------------|--------------------------------------|
C#||--0~----------------3~-----5~---8h10-7-|--0~----------------3~-----5~---7h8-5-|
G#||--0~----------------3~-----5~----------|--0~----------------3~-----5~---------|
C#||--0~----------------3~-----5~----------|--0~----------------3~-----5~---------|



Bridge
Guitar 1:
D#||--------------------------------------------|-------------------------------------------|
A#||--------------------------------------------|-------------------------------------------|
F#||----7777777777777-------777-------777-------|----7777777777777-------777-------777------|
C#||--0-xxxxxxxxxxxxx-0--00-xxx-0--00-xxx-0--00-|--0-xxxxxxxxxxxxx-0--00-xxx-0--00-xxx-0--0-|
G#||--0-5555555555555-0--00-555-0--00-555-0--00-|--0-5555555555555-0--00-555-0--00-555-0--0-|
C#||--0---------------0--00-----0--00-----0--00-|--0---------------0--00-----0--00-----0--0-|


Guitar 2:
D#||--------------------------------------------|------------------------------------------|
A#||--------------------------------------------|------------------------------------------|
F#||--------------------------------------------|------------------------------------------|
C#||--0-----------------------------------------|--0---------------0--00-----0--00----0--0-|
G#||--0-----------------------------------------|--0---------------0--00-----0--00----0--0-|
C#||--0-----------------------------------------|--0---------------0--00-----0--00----0--0-|


Guitar 1/2:
D#||-------------------|
A#||-------------------|
F#||-------------------|
C#||--8~-----7~-----8~-|
G#||--8~-----8~-----8~-|
C#||--8~-----7~-----8~-|


Guitar 1:
D#||----------------------|
A#||----------------------|
F#||--10-9----------------|
C#||-------10-12-10-8-----|
G#||------------------10~-|
C#||----------------------|



Chorus
Guitar 1:
D#||-------------------------------------|------------------------------------------------------|
A#||-------------------------------------|------------------------------------------------------|
F#||---------------9------10--1010--1010-|--10--10--9\-----10-9---------------------------------|
C#||--7---------------10--10--1010--1010-|----------------------10h12p10-------1010101010101010-|
G#||-----8--7\---------------------------|------------------------------10\12--1212121212121212-|
C#||-------------------------------------|------------------------------------------------------|


D#||-------------------------------------|-------------------------------------------|
A#||-----------------------5-------------|-------------------------------------------|
F#||--10--1010-9---5-5-5-----5-----------|--10101010---10-9--99--9999--7-5-----------|
C#||--x---x-x--x---x-x-x-------7--77--77-|--x-x-x-x----x--x--xx--xxxx------7--77--77-|
G#||--8---8-8--7---3-3-3-----------------|--8-8-8-8----8--7--77--7777----------------|
C#||-------------------------------------|-------------------------------------------|


Guitar 2:
D#||---------------------------------------|-----------------------------------|
A#||---------------------------------------|-----------------------------------|
F#||--7--7------------------10--1010--1010-|--7--7--6--------------------------|
C#||--7--7--5--xx--xx-8--8--8---8-8---8-8--|--7--7--7--xx--xx-8--8--3--3333333-|
G#||--5--5--5--xx--xx-8--8--8---8-8---8-8--|--5--5--4--xx--xx-8--8--3--3333333-|
C#||--------5--xx--xx-8--8-----------------|-----------xx--xx-8--8--3--3333333-|


D#||-------------------------------------------------------------------------|
A#||-------------------------------------------------------------------------|
F#||------------------------------------7777--7-6--66--6666------------------|
C#||--0--0--5--55--55--8--8--3--33--33--7777--7-7--77--7777--8--8--3--33--33-|
G#||--0--0--5--55--55--8--8--3--33--33--5555--5-4--44--4444--8--8--3--33--33-|
C#||--0--0--5--55--55--8--8--3--33--33-----------------------8--8--3--33--33-|



Outro
Guitar 1:
D#||------------------------------------------|---------------------------------------------|
A#||------------------------------------------|---------------------------------------------|
F#||----7777777777777------777------777-------|--10101010101010101010101010------101010-----|
C#||--0-xxxxxxxxxxxxx-0-0--xxx-0-0--xxx-0--00-|--x-x-x-x-x-x-x-x-x-x-x-x-x--0-0--x-x-x--0-0-|
G#||--0-5555555555555-0-0--555-0-0--555-0--00-|--8-8-8-8-8-8-8-8-8-8-8-8-8--0-0--8-8-8--0-0-|
C#||--0---------------0-0------0-0------0--00-|-----------------------------0-0---------0-0-|


Guitar 2:
D#||------------------------------------------|-----------------------------|
A#||------------------------------------------|-----------------------------|
F#||----7777777777777------777------777-------|--7777777777777------777-----|
C#||--0-xxxxxxxxxxxxx-0-0--xxx-0-0--xxx-0--00-|--xxxxxxxxxxxxx-0-0--xxx-0-0-|
G#||--0-5555555555555-0-0--555-0-0--555-0--00-|--5555555555555-0-0--555-0-0-|
C#||--0---------------0-0------0-0------0--00-|----------------0-0------0-0-|





Tablature Legend
----------------
 h   hammer-on
 p   pull-off
 b   bend
 pb  pre-bend
 r   release bend
 ~   hold / vibrato
 .   palm mute
 /   slide up
 \   slide down
 *   pinch harmonic
 '   natural harmonic
 x   mute note
 T   tap
comments
We did not receive enough feedback on this tab! Please rate:
print report bad tab
1 2 3 4 5
I want to post or [tab]
guest
You may want to rate the tab now too:
select rating
Please do not post tabs as comments. Select "correction" instead!