Oops, an error
Loading. Please wait.

Rescue Tab

1,237 views 9 this week
no commentswrite comment
1 2 3 4 5
excellent!
x 3
add to favorites launch autoscroll
font size
0
reset
Autoscroll
+/-
esc
set tempo
stop
Contributor
Difficulty
intermediate
WARNING: You are trying to view
                                    content from Ultimate-Guitar.com
                                    in an unauthorized application,
                                    which is prohibited.

                                    Please use an official Ultimate
                                    Guitar Tabs application for iPhone,
                                    iPad or Android to access legitimate
                                    chords, guitar, bass, and drum tabs
                                    from Ultimate-Guitar.com database.

                                    Type "ultimate guitar tabs" in Apple
                                    App Store's or Android Market's
                                    search to find the application.
Tabbed by: Joshua Garcia (joshuag523@aol.com)

Tabs for the album: Rescue by Silverstein
Please rate and let me know if you have any corrections. Thank you.


**NOTE: The compact disc has a total of 18 tracks. Tracks 14 - 16 are Demo Versions and are not 
included in this tab.**


*To skip to a certain song, hold Ctrl + F, type T followed by the track 
number in the box and click Next. (Ex: T07 will jump to The Artist)*


Tracklist:

T01.  Medication
T02.  Sacrifice
T03.  Forget Your Heart
T04.  Intervention
T05.  Good Luck With Your Lives
T06.  Texas Mickey
T07.  The Artist
T08.  Burning Hearts
T09.  Darling Harbour
T10.  Live To Kill
T11.  Replace You
T12.  In Memory Of...
T13.  Burning Hearts (Acoustic)
T17.  Dancing On My Grave
T18.  Replace You (Acoustic)




____________________________________________________________________________________________________

                                         T01.   MEDICATION
____________________________________________________________________________________________________





Tuning: Drop C#  (C# G# C# F# A# D#)



Intro
Guitar 1:
D#||------------------------------------------------------------------|
A#||------------------------------------------------------------------|
F#||------------------------------------------------------------------|
C#||---0---0---0~-----------0~--------------8---8---8~-----------8~---| x4
G#||---0---0---0~-----------0~--------------8---8---8~-----------8~---|
C#||---0---0---0~-----------0~--------------8---8---8~-----------8~---|


Guitar 2:
D#||------------------------------------------------------------------------------------------|
A#||-------------------------------------------------------------13--11--------13-------------|
F#||------------10---9~-----9--10---------------------------------------------------14b15r14~-| x3
C#||--(0---0)----------------------10~------12--10--12~------------------12-------------------|
G#||--(0---0)---------------------------------------------------------------------------------|
C#||--(0---0)---------------------------------------------------------------------------------|


D#||--------------------------------------------------------------------------------------|
A#||-------------------------------------------------------------13--11-------------------|
F#||------------10---9~-----9--10---------9~---9------------------------------------'7~---|
C#||--(0---0)----------------------10~-----------10-10-10-10-------------12~--------------|
G#||--(0---0)-----------------------------------------------------------------------------|
C#||--(0---0)-----------------------------------------------------------------------------|



Verse
Guitar 1:
D#||------------------------------------------------|
A#||------------------------------------------------|
F#||------------------------------------------------|
C#||--10------10------10-10--10------10------10-10--|
G#||--8--8888-8--8888-8--8---7--7777-7--7777-7--7---|
C#||------------------------------------------------|
         ....    ....           ....    ....


Guitar 2:
D#||-----------------------------------------------|
A#||-----------------------------------------------|
F#||-----------------------------------------------|
C#||--7--------------------------------------------|
G#||--8--------------------------------------------|
C#||-----------------------------------------------|


Guitar 1/2:
D#||----------------------------------------|
A#||----------------------------------------|
F#||----------------------------------------|
C#||--10-10---10-10-10---10-10-10---3/5--5--|
G#||--8--8----8--8--8----8--8--8----3/5--5--|
C#||--------------------------------3/5--5--|


Guitar 1:
D#||------------------------------------------------|
A#||------------------------------------------------|
F#||------------------------------------------------|
C#||--10------10------10-10--10------10------10-10--|
G#||--8--8888-8--8888-8--8---7--7777-7--7777-7--7---|
C#||------------------------------------------------|
         ....    ....           ....    ....


Guitar 2:
D#||-----------------------------------------------|
A#||-----------------------------------------------|
F#||-----------------------------------------------|
C#||--7--------------------------------------------|
G#||--8--------------------------------------------|
C#||-----------------------------------------------|


Guitar 1:
D#||------------------------------------------|
A#||------------------------------------------|
F#||--------------------------------10/12-12--|
C#||--10-10---10-10-10---10-10-10---x-/x--x---|
G#||--8--8----8--8--8----8--8--8----8-/10-10--|
C#||------------------------------------------|


Guitar 2:
D#||----------------------------------------|
A#||----------------------------------------|
F#||----------------------------------------|
C#||--10-10---10-10-10---10-10-10---3/5--5--|
G#||--8--8----8--8--8----8--8--8----3/5--5--|
C#||--------------------------------3/5--5--|



Pre-Chorus
Guitar 1:
D#||------------------------------------------------------------------------------------|
A#||------------------------------------------------------------------------------------|
F#||------------------------------------------------------------------------------------|
C#||-------10------------10------------10------------10------------10------------10-----|
G#||----8------8------8------8------8------8------8------8------8------8------8------8--|
C#||--0-------------8-------------0-------------8-------------0-------------8-----------|


Guitar 2:
D#||----------------------------------------------------------------------------|
A#||----------------------------------------------------------------------------|
F#||----------------------------------------------------------------------------|
C#||--00---000---088---888---800---000---088---888---800---000---088---888---8--|
G#||--00---000---088---888---800---000---088---888---800---000---088---888---8--|
C#||--00---000---088---888---800---000---088---888---800---000---088---888---8--|


Guitar 1/2:
A#||----------------------------------------|
F#||----------------------------------------|
C#||--10-10---10-9-9---9-10-10---10-12-12---|
G#||--x--x----x--x-x---x-x--x----x--x--x----|
C#||--8--8----8--7-7---7-8--8----8--10-10---|
C#||----------------------------------------|



Verse
Guitar 1:
D#||------------------------------------------------|
A#||------------------------------------------------|
F#||------------------------------------------------|
C#||--10------10------10-10--10------10------10-10--|
G#||--8--8888-8--8888-8--8---7--7777-7--7777-7--7---|
C#||------------------------------------------------|
         ....    ....           ....    ....


Guitar 2:
D#||-----------------------------------------------|
A#||-----------------------------------------------|
F#||-----------------------------------------------|
C#||--7--------------------------------pick--------|
G#||--8-----------------------------------slide----|
C#||-----------------------------------------------|


Guitar 1/2:
D#||----------------------------------------|
A#||----------------------------------------|
F#||----------------------------------------|
C#||--10-10---10-10-10---10-10-10---3/5--5--|
G#||--8--8----8--8--8----8--8--8----3/5--5--|
C#||--------------------------------3/5--5--|


D#||------------------------------------------------|
A#||------------------------------------------------|
F#||------------------------------------------------|
C#||--10------10------10-10--10------10------10-10--|
G#||--8--8888-8--8888-8--8---7--7777-7--7777-7--7---|
C#||------------------------------------------------|
         ....    ....           ....    ....

D#||------------------------------------------|
A#||------------------------------------------|
F#||--------------------------------10/12-12--|
C#||--10-10---10-10-10---10-10-10---x-/x--x---|
G#||--8--8----8--8--8----8--8--8----8-/10-10--|
C#||------------------------------------------|



Pre-Chorus
Guitar 1:
D#||------------------------------------------------------------------------------------|
A#||------------------------------------------------------------------------------------|
F#||------------------------------------------------------------------------------------|
C#||-------10------------10------------10------------10------------10------------10-----|
G#||----8------8------8------8------8------8------8------8------8------8------8------8--|
C#||--0-------------8-------------0-------------8-------------0-------------8-----------|


Guitar 2:
D#||----------------------------------------------------------------------------|
A#||----------------------------------------------------------------------------|
F#||----------------------------------------------------------------------------|
C#||--00---000---088---888---800---000---088---888---800---000---088---888---8--|
G#||--00---000---088---888---800---000---088---888---800---000---088---888---8--|
C#||--00---000---088---888---800---000---088---888---800---000---088---888---8--|


Guitar 1/2:
A#||----------------------------------------|
F#||----------------------------------------|
C#||--10-10---10-9-9---9-10-10---10-12-12---|
G#||--x--x----x--x-x---x-x--x----x--x--x----|
C#||--8--8----8--7-7---7-8--8----8--10-10---|
C#||----------------------------------------|



Chorus:
Guitar 1/2:
D#||--------------------------------------------------------------------|
A#||--------------------------------------------------------------------|
F#||--------------------------------------------------------------------|
C#||---7h8p7-----------7h8p7--------------------------------------------|
G#||---------------------------------5h8p5---4-----5h8p5-4---4---7-8-\--|
C#||---------0-0-----0-------0---0---------0-----0----------------------|
             .       .                     .     .

D#||-----------------------------------|-------------------------------------------|
A#||-----------------------------------|-------------------------------------------|
F#||-----------------------------------|-------------------------------------------|
C#||--2-3-----------2-3----------2-3---|--5----5----5----5----8----8----7----7-----| x2
G#||--4-5---0---0---4-5---0---0--4-5---|--5----5----5----5----8----8----7----7-----|
C#||--------0---0---------0---0--------|--5-55-5-55-5-55-5-55-8-88-8-88-7-77-7-77--|
            .   .         .   .             ..   ..   ..   ..   ..   ..   ..   ..



Verse
Guitar 1:
D#||------------------------------------------------|
A#||------------------------------------------------|
F#||------------------------------------------------|
C#||--10------10------10-10--10------10------10-10--|
G#||--8--8888-8--8888-8--8---7--7777-7--7777-7--7---|
C#||------------------------------------------------|
         ....    ....           ....    ....


Guitar 2:
D#||-----------------------------------------------|
A#||-----------------------------------------------|
F#||-----------------------------------------------|
C#||--7--------------------------------------------|
G#||--8--------------------------------------------|
C#||-----------------------------------------------|


Guitar 1/2:
D#||----------------------------------------|
A#||----------------------------------------|
F#||----------------------------------------|
C#||--10-10---10-10-10---10-10-10---3/5--5--|
G#||--8--8----8--8--8----8--8--8----3/5--5--|
C#||--------------------------------3/5--5--|


Guitar 1/2:
D#||------------------------------------------------|
A#||------------------------------------------------|
F#||------------------------------------------------|
C#||--10------10------10-10--10------10------10-10--|
G#||--8--8888-8--8888-8--8---7--7777-7--7777-7--7---|
C#||------------------------------------------------|
         ....    ....           ....    ....


D#||------------------------------------------|
A#||------------------------------------------|
F#||--------------------------------10/12-12--|
C#||--10-10---10-10-10---10-10-10---x-/x--x---|
G#||--8--8----8--8--8----8--8--8----8-/10-10--|
C#||------------------------------------------|



Pre-Chorus
Guitar 1:
D#||------------------------------------------------------------------------------------|
A#||------------------------------------------------------------------------------------|
F#||------------------------------------------------------------------------------------|
C#||-------10------------10------------10------------10------------10------------10-----|
G#||----8------8------8------8------8------8------8------8------8------8------8------8--|
C#||--0-------------8-------------0-------------8-------------0-------------8-----------|


Guitar 2:
D#||----------------------------------------------------------------------------|
A#||----------------------------------------------------------------------------|
F#||----------------------------------------------------------------------------|
C#||--00---000---088---888---800---000---088---888---800---000---088---888---8--|
G#||--00---000---088---888---800---000---088---888---800---000---088---888---8--|
C#||--00---000---088---888---800---000---088---888---800---000---088---888---8--|


Guitar 1/2:
A#||----------------------------------------|
F#||----------------------------------------|
C#||--10-10---10-9-9---9-10-10---10-12-12---|
G#||--x--x----x--x-x---x-x--x----x--x--x----|
C#||--8--8----8--7-7---7-8--8----8--10-10---|
C#||----------------------------------------|



Chorus:
Guitar 1/2:
D#||--------------------------------------------------------------------|
A#||--------------------------------------------------------------------|
F#||--------------------------------------------------------------------|
C#||---7h8p7-----------7h8p7--------------------------------------------|
G#||---------------------------------5h8p5---4-----5h8p5-4---4---7-8-\--|
C#||---------0-0-----0-------0---0---------0-----0----------------------|
             .       .                     .     .

D#||-----------------------------------|-------------------------------------------|
A#||-----------------------------------|-------------------------------------------|
F#||-----------------------------------|-------------------------------------------|
C#||--2-3-----------2-3----------2-3---|--5----5----5----5----8----8----7----7-----|
G#||--4-5---0---0---4-5---0---0--4-5---|--5----5----5----5----8----8----7----7-----|
C#||--------0---0---------0---0--------|--5-55-5-55-5-55-5-55-8-88-8-88-7-77-7-77--|
            .   .         .   .             ..   ..   ..   ..   ..   ..   ..   ..

D#||--------------------------------------------------------------------|
A#||--------------------------------------------------------------------|
F#||--------------------------------------------------------------------|
C#||---7h8p7-----------7h8p7--------------------------------------------|
G#||---------------------------------5h8p5---4-----5h8p5-4---4---7-8-\--|
C#||---------0-0-----0-------0---0---------0-----0----------------------|
             .       .                     .     .

D#||-----------------------------------|
A#||-----------------------------------|
F#||-----------------------------------|
C#||--2-3-----------2-3----------2-3---|
G#||--4-5---0---0---4-5---0---0--4-5---|
C#||--------0---0---------0---0--------|
            .   .         .   .


D#||---------------------------------------------------------------|
A#||---------------------------------------------------------------|
F#||---------------------------------------------------------------|
C#||--5----5----5----5----5----5----8----8----8----7----7----7-----|
G#||--5----5----5----5----5----5----8----8----8----7----7----7-----|
C#||--5-55-5-55-5-55-5-55-5-55-5-55-8-88-8-88-8-88-7-77-7-77-7-77--|
        ..   ..   ..   ..   ..   ..   ..   ..   ..   ..   ..   ..


Bridge
Guitar 1/2:
D#||---------------------------------------------|
A#||---------------------------------------------|
F#||---------------------------------------------|
C#||--2-3-----------2-3-----------777777555555---| x2
G#||--4-5---0---0---4-5---0---0---888888777777---|
C#||--------0---0---------0---0------------------|


Guitar 1:
D#||--------------------------------------------------------------------------|
A#||--------------------------------------------------------------------------|
F#||--15---15-15-15-15--14---14-14-14-14--12---12-12-12-12--10---10-10-10-10--|
C#||--x----x--x--x--x---x----x--x--x--x---x----x--x--x--x---x----x--x--x--x---|
G#||--13---13-13-13-13--12---12-12-12-12--10---10-10-10-10--8----8--8--8--8---|
C#||--------------------------------------------------------------------------|


D#||--------------------------------------------------------------------------|
A#||--------------------------------------------------------------------------|
F#||--15---15-15-15-15--14---14-14-14-14--12---12-12-12-12--14---14-14-14-14--|
C#||--x----x--x--x--x---x----x--x--x--x---x----x--x--x--x---x----x--x--x--x---|
G#||--13---13-13-13-13--12---12-12-12-12--10---10-10-10-10--12---12-12-12-12--|
C#||--------------------------------------------------------------------------|


Guitar 2:
D#||----------------------------------------------------------------|
A#||----------------------------------------------------------------|
F#||----------------------------------------------------------------|
C#||--5--55555--55555--5555--7--7777--8--88888--88888--88888--8888--|
G#||--5--55555--55555--5555--7--7777--8--88888--88888--88888--8888--|
C#||--5--55555--55555--5555--7--7777--8--88888--88888--88888--8888--|


Guitar 1/2:
D#||---------------------------------------------|
A#||---------------------------------------------|
F#||---------------------------------------------|
C#||--2-3-----------2-3-----------777777555555---| x2
G#||--4-5---0---0---4-5---0---0---888888777777---|
C#||--------0---0---------0---0------------------|


Guitar 1:
D#||--------------------------------------------------------------------------|
A#||--------------------------------------------------------------------------|
F#||--15---15-15-15-15--14---14-14-14-14--12---12-12-12-12--10---10-10-10-10--|
C#||--x----x--x--x--x---x----x--x--x--x---x----x--x--x--x---x----x--x--x--x---|
G#||--13---13-13-13-13--12---12-12-12-12--10---10-10-10-10--8----8--8--8--8---|
C#||--------------------------------------------------------------------------|


D#||--------------------------------------------------------------------------|
A#||--------------------------------------------------------------------------|
F#||--15---15-15-15-15--14---14-14-14-14--12---12-12-12-12--14---14-14-14-14--|
C#||--x----x--x--x--x---x----x--x--x--x---x----x--x--x--x---x----x--x--x--x---|
G#||--13---13-13-13-13--12---12-12-12-12--10---10-10-10-10--12---12-12-12-12--|
C#||--------------------------------------------------------------------------|


D#||--------------------------------------------------------------------------|
A#||--------------------------------------------------------------------------|
F#||--15---15-15-15-15--14---14-14-14-14--12---12-12-12-12--14---14-14-14-14--|
C#||--x----x--x--x--x---x----x--x--x--x---x----x--x--x--x---x----x--x--x--x---|
G#||--13---13-13-13-13--12---12-12-12-12--10---10-10-10-10--12---12-12-12-12--|
C#||--------------------------------------------------------------------------|


D#||-------------------------------------------|
A#||-------------------------------------------|
F#||--10---10-10-10-10--12---12-12-12-12--10~--|
C#||--x----x--x--x--x---x----x--x--x--x---x----|
G#||--8----8--8--8--8---10---10-10-10-10--8----|
C#||-------------------------------------------|


Guitar 2:
D#||----------------------------------------------------------------|
A#||----------------------------------------------------------------|
F#||----------------------------------------------------------------|
C#||--5--55555--55555--5555--7--7777--8--88888--88888--88888--8888--|
G#||--5--55555--55555--5555--7--7777--8--88888--88888--88888--8888--|
C#||--5--55555--55555--5555--7--7777--8--88888--88888--88888--8888--|


D#||-------------------------------------------------------|
A#||-------------------------------------------------------|
F#||-------------------------------------------------------|
C#||--5--55555--55555--5555--7--7777--8--88888--88888--8~--|
G#||--5--55555--55555--5555--7--7777--8--88888--88888--8~--|
C#||--5--55555--55555--5555--7--7777--8--88888--88888--8~--|



Interlude
Guitar 1:
D#||-----------------------------------------|-------------------------------------------|
A#||-----------------------------------------|-------------------------------------------|
F#||-----------10------9------9------9-------|-----------10------9------10------12-------|
C#||------10------10-----10-----10-----10----|------10------10-----10------10------10----|
G#||----8----8-------8------8------8------8--|----8----8-------8------8-------8-------8--|
C#||--0--------------------------------------|--8----------------------------------------|


D#||-----------------------------------------|-------------------------------------|
A#||-----------------------------------------|-------------------------------------|
F#||-----------10------9------9------9-------|-----------10------9------10----12~--|
C#||------10------10-----10-----10-----10----|------10------10-----10------10------|
G#||----8----8-------8------8------8------8--|----8----8-------8------8------------|
C#||--0--------------------------------------|--8----------------------------------|



Guitar 2:
D#||---------------------|--------------------|---------------------|
A#||---------------------|--------------------|---------------------|
F#||---------------------|--------------------|---------------------|
C#||--------3---2---3~---|-------3---2--------|--------3---2---3~---|
G#||---/5----------------|---1-----------3~---|---/5----------------|
C#||---------------------|--------------------|---------------------|



Guitar 1:
D#||-----------------------------------------|-------------------------------------------|
A#||-----------------------------------------|-------------------------------------------|
F#||-----------10------9------9------9-------|-----------10------9------10------12-------|
C#||------10------10-----10-----10-----10----|------10------10-----10------10------10----|
G#||----8----8-------8------8------8------8--|----8----8-------8------8-------8-------8--|
C#||--0--------------------------------------|--8----------------------------------------|


D#||-----------------------------------------|
A#||-----------------------------------------|
F#||-----------10------9------9------9-------|
C#||------10------10-----10-----10-----10----|
G#||----8----8-------8------8------8------8--|
C#||--0--------------------------------------|


Guitar 1/2:
D#||-------------------------------------------|
A#||-------------------------------------------|
F#||---------------10~--\----------------------|
C#||--------10---------------3-3-3-3-3--5-5-5--|
G#||------------8------------3-3-3-3-3--5-5-5--|
C#||--8--8-------------------3-3-3-3-3--5-5-5--|
      .  .  .   .            . . . . .


Pre-Outro
Guitar 2:
D#||------------------------------------------------------|
A#||------------------------------------------------------|
F#||------------------------------------------------------|
C#||--------3---2---3~---3---2-----------3---2------------|
G#||---/5------------------------3---1-----------3---1~---|
C#||------------------------------------------------------|


D#||---------------------------------|
A#||---------------------------------|
F#||---------------------------------|
C#||--------3---2---3~---3---2-------|
G#||---/5------------------------3---|
C#||---------------------------------|


Guitar 1:
D#||-----------------------------------------|-------------------------------------------|
A#||-----------------------------------------|-------------------------------------------|
F#||-----------10------9------9------9-------|-----------10------9------10------12-------|
C#||------10------10-----10-----10-----10----|------10------10-----10------10------10----|
G#||----8----8-------8------8------8------8--|----8----8-------8------8-------8-------8--|
C#||--0--------------------------------------|--8----------------------------------------|


D#||-----------------------------------------|
A#||-----------------------------------------|
F#||-----------10------9------9------9-------|
C#||------10------10-----10-----10-----10----|
G#||----8----8-------8------8------8------8--|
C#||--0--------------------------------------|


Guitar 1/2:
D#||-------------------------------------------|
A#||-------------------------------------------|
F#||---------------10~--\----------------------|
C#||--------10---------------3-3-3-3-3--5-5-5--| x2
G#||------------8------------3-3-3-3-3--5-5-5--|
C#||--8--8-------------------3-3-3-3-3--5-5-5--|
      .  .  .   .            . . . . .


Outro
Guitar 2:
D#||-----------------------------------------------------------------|
A#||-----------------------------------------------------------------|
F#||-----------------------------------------------------------------|
C#||--------3---2---3~---3---2-----------3---2-----------3---2-------|
G#||---/5------------------------3---1-----------3---1-----------3---|
C#||-----------------------------------------------------------------|


D#||---------------------------------|
A#||---------------------------------|
F#||---------------------------------|
C#||--------3---2---3~---3---2-------|
G#||---/5------------------------3---|
C#||---------------------------------|


Guitar 1:
D#||-----------------------------------------|-------------------------------------------|
A#||-----------------------------------------|-------------------------------------------|
F#||-----------10------9------9------9-------|-----------10------9------10------12-------|
C#||------10------10-----10-----10-----10----|------10------10-----10------10------10----|
G#||----8----8-------8------8------8------8--|----8----8-------8------8-------8-------8--|
C#||--0--------------------------------------|--8----------------------------------------|


D#||-----------------------------------------|
A#||-----------------------------------------|
F#||-----------10------9------9------9-------|
C#||------10------10-----10-----10-----10----|
G#||----8----8-------8------8------8------8--|
C#||--0--------------------------------------|


Guitar 1/2:
D#||------------------------------------------------|
A#||------------------------------------------------|
F#||---------------10~--\---------------------------|
C#||--------10---------------3-3-3-3-3--5-5-5--0~---|
G#||------------8------------3-3-3-3-3--5-5-5--0~---|
C#||--8--8-------------------3-3-3-3-3--5-5-5--0~---|
      .  .  .   .            . . . . .





____________________________________________________________________________________________________

                                          T02.   SACRIFICE
____________________________________________________________________________________________________





Tuning: Drop C# (C# G# C# F# A# D#)



Intro
Guitar 1:
D#||---------------------------------------------------------|
A#||---------------------------------------------------------|
F#||-----7----------------------------7----------------------|
C#||-----x----------------------------x--------------7-------|
G#||-000-5-0-0------7---8p7-------000-5-0-0------7-----10-8--|
C#||-000---0-0-7h10---------10----000---0-0-7h10-------------|
     ...   . .                    ...   . .

D#||-----------------------------------------------------|
A#||-----------------------------------------------------|
F#||-----7-----------------------------------------------|
C#||-----x----------------------------10-----5555-7777---|
G#||-000-5-0-0------7---8p7-------888----8---5555-7777---|
C#||-000---0-0-7h10---------10----888--------5555-7777---|
     ...   . .                    ...

D#||---------------------------------------------------------|
A#||---------------------------------------------------------|
F#||-----7----------------------------7----------------------|
C#||-----x----------------------------x--------------7-------|
G#||-000-5-0-0------7---8p7-------000-5-0-0------7-----10-8--|
C#||-000---0-0-7h10---------10----000---0-0-7h10-------------|
     ...   . .                    ...   . .

D#||-----------------------------------------------|
A#||-----------------------------------------------|
F#||-----7-----------------------------------------|
C#||-----x----------------------8888888877777777---|
G#||-000-5-0-0------7---8p7-----8888888877777777---|
C#||-000---0-0-7h10---------10--8888888877777777---|
     ...   . .


Guitar 2:
D#||---------------------|-------------------------|
A#||---------------------|-------------------------|
F#||---------------------|-------------------------|
C#||--0000---0---0---x3--|------10-----5555-7777---|
G#||--0000---0---0-------|--888----8---5555-7777---|
C#||--0000---0---0-------|--888--------5555-7777---|
      ....   .   .          ...

D#||---------------------|---------------------------------------------------|
A#||---------------------|---------------------------------------------------|
F#||---------------------|--10-10-10-10-10-10-10-10-12-12-12-12-12-12-12-12--|
C#||--0000---0---0---x3--|--x--x--x--x--x--x--x--x--x--x--x--x--x--x--x--x---|
G#||--0000---0---0-------|--8--8--8--8--8--8--8--8--10-10-10-10-10-10-10-10--|
C#||--0000---0---0-------|---------------------------------------------------|
      ....   .   .


Verse
Guitar 1:
D#||-----------------------|-----------------------|
A#||-----------------------|-----------------------|
F#||---------10---9----10--|---------10---9----10--|
C#||--0000---x----x----x---|--8888---x----x----x---|
G#||--0000---8----7----8---|--8888---8----7----8---|
C#||--0000-----------------|--8888-----------------|


D#||---------------------------|------------------|
A#||---------------------------|------------------|
F#||-------------10---9----10--|------------------| x2
C#||--10101010---x----x----x---|--11111111---11~--|
G#||--10101010---8----7----8---|--11111111---11~--|
C#||--10101010-----------------|--11111111---11~--|
                                 (^ 11's)

Guitar 2:
D#||-----------------------|-----------------------|
A#||-----------------------|-----------------------|
F#||-----------------------|---------14---12---14--|
C#||-----------------------|--8888---x----x----x---|
G#||-----------------------|--8888---12---10---12--|
C#||-----------------------|--8888-----------------|


D#||---------------------------|----------------------------|
A#||---------------------------|----------------------------|
F#||-------------10---9----10--|-------------14~--12-10-10--|
C#||--10101010---x----x----x---|--11111111---x----x--x--x---|
G#||--10101010---8----7----8---|--11111111---12~--10-8--8---|
C#||--10101010-----------------|--11111111------------------|

D#||-----------------------|-----------------------|
A#||-----------------------|-----------------------|
F#||-----------------------|---------14---12---14--|
C#||-----------------------|--8888---x----x----x---|
G#||-----------------------|--8888---12---10---12--|
C#||-----------------------|--8888-----------------|


D#||---------------------------|------------------|
A#||---------------------------|------------------|
F#||-------------10---9----10--|-------------14~--|
C#||--10101010---x----x----x---|--11111111---x----|
G#||--10101010---8----7----8---|--11111111---12~--|
C#||--10101010-----------------|--11111111--------|


Chorus
Guitar 1:
D#||------------------------------------------------------|
A#||------------------------------------------------------|
F#||------------------------------------------------------|
C#||-12-1212-1212-12-1212-1212-11-1111-1111-11-1111-1111--|
G#||-12-1212-1212-12-1212-1212-11-1111-1111-11-1111-1111--|
C#||-12-1212-1212-12-1212-1212-11-1111-1111-11-1111-1111--|


D#||-----------------------------------------------|
A#||-----------------------------------------------|
F#||-----------------------------------------------|
C#||--10-1010-1010-10-1010-1010-8-88-888-7-77-777--|
G#||--10-1010-1010-10-1010-1010-8-88-888-7-77-777--|
C#||--10-1010-1010-10-1010-1010-8-88-888-7-77-777--|


D#||------------------------------------------------------|
A#||------------------------------------------------------|
F#||------------------------------------------------------|
C#||-12-1212-1212-12-1212-1212-11-1111-1111-11-1111-1111--|
G#||-12-1212-1212-12-1212-1212-11-1111-1111-11-1111-1111--|
C#||-12-1212-1212-12-1212-1212-11-1111-1111-11-1111-1111--|


D#||--------------------------------------|
A#||--------------------------------------|
F#||--------------------------------------|
C#||--10-1010-1010-10-1010-1010--8----10--|
G#||--10-1010-1010-10-1010-1010--8----10--|
C#||--10-1010-1010-10-1010-1010--8----10--|


Guitar 2:
D#||------------------------------------------------------|
A#||------------------------------------------------------|
F#||-14-1414-1414-14-1414-1414-14-1414-1414-14-1414-1414--|
C#||-x--x-x--x-x--x--x-x--x-x--x--x-x--x-x--x--x-x--x-x---|
G#||-12-1212-1212-12-1212-1212-12-1212-1212-12-1212-1212--|
C#||------------------------------------------------------|


D#||--------------------------------------------|
A#||--------------------------------------------|
F#||-12-1212-1212-12-1212-1212-7-77-77-6-66-66--|
C#||-x--x-x--x-x--x--x-x--x-x--x-xx-xx-x-xx-xx--|
G#||-10-1010-1010-10-1010-1010-5-55-55-4-44-44--|
C#||--------------------------------------------|


D#||------------------------------------------------------|
A#||------------------------------------------------------|
F#||-14-1414-1414-14-1414-1414-14-1414-1414-14-1414-1414--|
C#||-x--x-x--x-x--x--x-x--x-x--x--x-x--x-x--x--x-x--x-x---|
G#||-12-1212-1212-12-1212-1212-12-1212-1212-12-1212-1212--|
C#||------------------------------------------------------|


D#||-------------------------------------|
A#||-------------------------------------|
F#||-12-1212-1212-12-1212-1212-----------|
C#||-x--x-x--x-x--x--x-x--x-x---8----10--|
G#||-10-1010-1010-10-1010-1010--8----10--|
C#||----------------------------8----10--|



Pre-Verse
Guitar 1:
D#||---------------------------------------------------------|
A#||---------------------------------------------------------|
F#||-----7----------------------------7----------------------|
C#||-----x----------------------------x--------------7-------|
G#||-000-5-0-0------7---8p7-------000-5-0-0------7-----10-8--|
C#||-000---0-0-7h10---------10----000---0-0-7h10-------------|
     ...   . .                    ...   . .

D#||-----------------------------------------------|
A#||-----------------------------------------------|
F#||-----7-----------------------------------------|
C#||-----x----------------------8888888877777777---|
G#||-000-5-0-0------7---8p7-----8888888877777777---|
C#||-000---0-0-7h10---------10--8888888877777777---|
     ...   . .


Guitar 2:
D#||---------------------|---------------------------------------------------|
A#||---------------------|---------------------------------------------------|
F#||---------------------|--10-10-10-10-10-10-10-10-12-12-12-12-12-12-12-12--|
C#||--0000---0---0---x3--|--x--x--x--x--x--x--x--x--x--x--x--x--x--x--x--x---|
G#||--0000---0---0-------|--8--8--8--8--8--8--8--8--10-10-10-10-10-10-10-10--|
C#||--0000---0---0-------|---------------------------------------------------|
      ....   .   .


Verse
Guitar 1:
D#||-----------------------|-----------------------|
A#||-----------------------|-----------------------|
F#||---------10---9----10--|---------10---9----10--|
C#||--0000---x----x----x---|--8888---x----x----x---|
G#||--0000---8----7----8---|--8888---8----7----8---|
C#||--0000-----------------|--8888-----------------|


D#||---------------------------|------------------|
A#||---------------------------|------------------|
F#||-------------10---9----10--|------------------| x2
C#||--10101010---x----x----x---|--11111111---11~--|
G#||--10101010---8----7----8---|--11111111---11~--|
C#||--10101010-----------------|--11111111---11~--|


Guitar 2:
D#||-----------------------|-----------------------|
A#||-----------------------|-----------------------|
F#||-----------------------|---------14---12---14--|
C#||-----------------------|--8888---x----x----x---|
G#||-----------------------|--8888---12---10---12--|
C#||-----------------------|--8888-----------------|


D#||---------------------------|----------------------------|
A#||---------------------------|----------------------------|
F#||-------------10---9----10--|-------------14~--12-10-10--|
C#||--10101010---x----x----x---|--11111111---x----x--x--x---|
G#||--10101010---8----7----8---|--11111111---12~--10-8--8---|
C#||--10101010-----------------|--11111111------------------|


D#||-----------------------|-----------------------|
A#||-----------------------|-----------------------|
F#||-----------------------|---------14---12---14--|
C#||-----------------------|--8888---x----x----x---|
G#||-----------------------|--8888---12---10---12--|
C#||-----------------------|--8888-----------------|


D#||---------------------------|------------------|
A#||---------------------------|------------------|
F#||-------------10---9----10--|-------------14~--|
C#||--10101010---x----x----x---|--11111111---x----|
G#||--10101010---8----7----8---|--11111111---12~--|
C#||--10101010-----------------|--11111111--------|



Chorus
Guitar 1:
D#||------------------------------------------------------|
A#||------------------------------------------------------|
F#||------------------------------------------------------|
C#||-12-1212-1212-12-1212-1212-11-1111-1111-11-1111-1111--|
G#||-12-1212-1212-12-1212-1212-11-1111-1111-11-1111-1111--|
C#||-12-1212-1212-12-1212-1212-11-1111-1111-11-1111-1111--|


D#||-----------------------------------------------|
A#||-----------------------------------------------|
F#||-----------------------------------------------|
C#||--10-1010-1010-10-1010-1010-8-88-888-7-77-777--|
G#||--10-1010-1010-10-1010-1010-8-88-888-7-77-777--|
C#||--10-1010-1010-10-1010-1010-8-88-888-7-77-777--|


D#||------------------------------------------------------|
A#||------------------------------------------------------|
F#||------------------------------------------------------|
C#||-12-1212-1212-12-1212-1212-11-1111-1111-11-1111-1111--|
G#||-12-1212-1212-12-1212-1212-11-1111-1111-11-1111-1111--|
C#||-12-1212-1212-12-1212-1212-11-1111-1111-11-1111-1111--|


D#||----------------------------------------------------|
A#||----------------------------------------------------|
F#||----------------------------------------------------|
C#||--10-1010-1010-10-1010-1010--8~---10~---0~-----14\--|
G#||--10-1010-1010-10-1010-1010--8~---10~---0~-----14\--|
C#||--10-1010-1010-10-1010-1010--8~---10~---0~-----14\--|


Guitar 2:
D#||------------------------------------------------------|
A#||------------------------------------------------------|
F#||-14-1414-1414-14-1414-1414-14-1414-1414-14-1414-1414--|
C#||-x--x-x--x-x--x--x-x--x-x--x--x-x--x-x--x--x-x--x-x---|
G#||-12-1212-1212-12-1212-1212-12-1212-1212-12-1212-1212--|
C#||------------------------------------------------------|


D#||--------------------------------------------|
A#||--------------------------------------------|
F#||-12-1212-1212-12-1212-1212-7-77-77-6-66-66--|
C#||-x--x-x--x-x--x--x-x--x-x--x-xx-xx-x-xx-xx--|
G#||-10-1010-1010-10-1010-1010-5-55-55-4-44-44--|
C#||--------------------------------------------|


D#||------------------------------------------------------|
A#||------------------------------------------------------|
F#||-14-1414-1414-14-1414-1414-14-1414-1414-14-1414-1414--|
C#||-x--x-x--x-x--x--x-x--x-x--x--x-x--x-x--x--x-x--x-x---|
G#||-12-1212-1212-12-1212-1212-12-1212-1212-12-1212-1212--|
C#||------------------------------------------------------|


D#||---------------------------------------------------|
A#||---------------------------------------------------|
F#||-12-1212-1212-12-1212-1212-------------------------|
C#||-x--x-x--x-x--x--x-x--x-x---8~---10~---0~----------|
G#||-10-1010-1010-10-1010-1010--8~---10~---0~----------|
C#||----------------------------8~---10~---0~-----14\--|



Breakdown
Guitar 1/2:
D#||-------------------------------------|-------------------------------------|
A#||-------------------------------------|-------------------------------------|
F#||-----7--------------7----------------|-----7--------------7----------------|
C#||-----x--------------x----------------|-----x--------------x--------7-------|
G#||-000-5-0-00-----000-5-0-00--------7--|-000-5-0-00-----000-5-0-00-----10-8--|
C#||-000---0-00-----000---0-00---7h10----|-000---0-00-----000---0-00-----------|
     ...   . ..     ...   . ..             ...   . ..     ...   . ..

Guitar 1:
D#||---------------------------------------------------------|
A#||---------------------------------------------------------|
F#||-----7----------------------------7----------------------| x2
C#||-----x----------------------------x--------------7-------|
G#||-000-5-0-0------7---8p7-------000-5-0-0------7-----10-8--|
C#||-000---0-0-7h10---------10----000---0-0-7h10-------------|
     ...   . .                    ...   . .

Guitar 2:
D#||----------------|
A#||----------------|
F#||----------------|
C#||--0000---0---0--| x4
G#||--0000---0---0--|
C#||--0000---0---0--|
      ....   .   .


Bridge
Guitar 1/2:
D#||-----------------------------------------------------------------|
A#||-----------------------------------------------------------------|
F#||-----------------------------------------------------------------| x2
C#||--0~----00~--0-0--3----33~--3-3--5~----55~--5-5--8888-10101010---|
G#||--0~----00~--0-0--3----33~--3-3--5~----55~--5-5--8888-10101010---|
C#||--0~----00~--0-0--3----33~--3-3--5~----55~--5-5--8888-10101010---|



Interlude
Guitar 1:
D#||---------------------------------------------------|
A#||-------------13----------------------13------------|
F#||-------12-14----14-12----------12-14----12-14------|
C#||-12-15----------------15-12-15----------------15---|
G#||---------------------------------------------------|
C#||---------------------------------------------------|


D#||---------------------------|
A#||----------13---------------|
F#||----14-15----15-14-12------|
C#||-12-------------------15---|
G#||---------------------------|
C#||---------------------------|


D#||---------------------------|
A#||---------------------------|
F#||--14----------15-----------| x2
C#||-----15-12-15----15-12-15--|
G#||---------------------------|
C#||---------------------------|


Guitar 2:
D#||---------------------------------------------------|
A#||---------------------------------------------------|
F#||----14-12-14-12-------------14-12-14-12------------|
C#||-12-------------15-14-15-12-------------15-14-15---|
G#||---------------------------------------------------|
C#||---------------------------------------------------|


D#||--------------------------|
A#||-------13-15-13-----------|
F#||----15----------15-14-15--|
C#||-12-----------------------|
G#||--------------------------|
C#||--------------------------|


D#||--13----------12------------|
A#||-----15-13-15----15-13-15---|
F#||----------------------------| x2
C#||----------------------------|
G#||----------------------------|
C#||----------------------------|


Guitar 1/2 (dubbed):
D#||-----------------------------------------------------------------|
A#||-----------------------------------------------------------------|
F#||-----------------------------------------------------------------|
C#||--0~----00~--0-0--3----33~--2-3--5~----55~--5-5--8888-10101010---|
G#||--0~----00~--0-0--3----33~--2-3--5~----55~--5-5--8888-10101010---|
C#||--0~----00~--0-0--3----33~--2-3--5~----55~--5-5--8888-10101010---|
                                . .

D#||-----------------------------------------------------------------|
A#||-----------------------------------------------------------------|
F#||-----------------------------------------------------------------|
C#||--0~----00~--0-0--3----33~--3-3--5~----55~--5-5--8888-10101010---|
G#||--0~----00~--0-0--3----33~--3-3--5~----55~--5-5--8888-10101010---|
C#||--0~----00~--0-0--3----33~--3-3--5~----55~--5-5--8888-10101010---|


Guitar 1:
D#||--------------------------------------|
A#||--------------------------------------|
F#||--------------------------------------|
C#||--8--8--88--8--810--10--1010--10--10--|
G#||--8--8--88--8--810--10--1010--10--10--|
C#||--8--8--88--8--810--10--1010--10--10--|



Chorus
Guitar 1:
D#||------------------------------------------------------|
A#||------------------------------------------------------|
F#||------------------------------------------------------|
C#||-12-1212-1212-12-1212-1212-11-1111-1111-11-1111-1111--|
G#||-12-1212-1212-12-1212-1212-11-1111-1111-11-1111-1111--|
C#||-12-1212-1212-12-1212-1212-11-1111-1111-11-1111-1111--|


D#||-----------------------------------------------|
A#||-----------------------------------------------|
F#||-----------------------------------------------|
C#||--10-1010-1010-10-1010-1010-8-88-888-7-77-777--|
G#||--10-1010-1010-10-1010-1010-8-88-888-7-77-777--|
C#||--10-1010-1010-10-1010-1010-8-88-888-7-77-777--|


D#||------------------------------------------------------|
A#||------------------------------------------------------|
F#||------------------------------------------------------|
C#||-12-1212-1212-12-1212-1212-11-1111-1111-11-1111-1111--|
G#||-12-1212-1212-12-1212-1212-11-1111-1111-11-1111-1111--|
C#||-12-1212-1212-12-1212-1212-11-1111-1111-11-1111-1111--|


D#||---------------------------------------|
A#||---------------------------------------|
F#||---------------------------------------|
C#||--10-1010-1010-10-1010-1010--8~---10~--|
G#||--10-1010-1010-10-1010-1010--8~---10~--|
C#||--10-1010-1010-10-1010-1010--8~---10~--|


Guitar 2:
D#||------------------------------------------------------|
A#||------------------------------------------------------|
F#||-14-1414-1414-14-1414-1414-14-1414-1414-14-1414-1414--|
C#||-x--x-x--x-x--x--x-x--x-x--x--x-x--x-x--x--x-x--x-x---|
G#||-12-1212-1212-12-1212-1212-12-1212-1212-12-1212-1212--|
C#||------------------------------------------------------|


D#||--------------------------------------------|
A#||--------------------------------------------|
F#||-12-1212-1212-12-1212-1212-7-77-77-6-66-66--|
C#||-x--x-x--x-x--x--x-x--x-x--x-xx-xx-x-xx-xx--|
G#||-10-1010-1010-10-1010-1010-5-55-55-4-44-44--|
C#||--------------------------------------------|


D#||------------------------------------------------------|
A#||------------------------------------------------------|
F#||-14-1414-1414-14-1414-1414-14-1414-1414-14-1414-1414--|
C#||-x--x-x--x-x--x--x-x--x-x--x--x-x--x-x--x--x-x--x-x---|
G#||-12-1212-1212-12-1212-1212-12-1212-1212-12-1212-1212--|
C#||------------------------------------------------------|


D#||--------------------------------------|
A#||--------------------------------------|
F#||-12-1212-1212-12-1212-1212------------|
C#||-x--x-x--x-x--x--x-x--x-x---8~---10~--|
G#||-10-1010-1010-10-1010-1010--8~---10~--|
C#||----------------------------8~---10~--|



Outro
Guitar 1:
D#||----------------------------------|
A#||----------------------------------|
F#||-----7----------------------------|
C#||-----x------------------------0---|
G#||-000-5-0-0------7---8p7-------0---|
C#||-000---0-0-7h10---------10----0---|
     ...   . .

Guitar 2:
D#||-----------------|-------|
A#||-----------------|-------|
F#||-----------------|-------|
C#||--0000---0---0---|---0---|
G#||--0000---0---0---|---0---|
C#||--0000---0---0---|---0---|
      ....   .   .





____________________________________________________________________________________________________

                                    T03.   FORGET YOUR HEART
____________________________________________________________________________________________________





Tuning: Half-Step Down (D# G# C# F# A# D#)



Intro
Guitar 1:
D#||--------------------------------------------------------------------|
A#||--------------------------------------------------------------------|
F#||--------------------------------------------------------------------|
C#||----------3---1---0--------0---------------0------------------------| x3
G#||------1----------------1-------1-------0-------3---1---1---0---0----|
D#||--3-3---3---3---3---3----3---3---3-2-2---2---2---2---2---2---2---2--|


D#||-----------------------------------------------------------------|
A#||-----------------------------------------------------------------|
F#||-----------------------------------------------------------------|
C#||----------3---1---0--------0-------------------------------------|
G#||------1----------------1-------1----000---0--0---x-x-xxx-x-xxxx--|
D#||--3-3---3---3---3---3----3---3---3--222---2--2---x-x-xxx-x-xxxx--|



Verse
Guitar 1/2:
D#||------------------------------------------------------------------------------------|
A#||------------------------------------------------------------------------------------|
F#||--3-3-333-2-22-2222--3-3-333-2-22-2222--5-5-5555-55-5555--3-3-333-------------------|
C#||--0-0-000-0-00-0000--1-1-111-1-11-1111--3-3-3333-33-3333--1-1-111--3-33-------------|
G#||--x-x-xxx-x-xx-xxxx--1-1-111-1-11-1111-----------------------------3-33-xxx-x-xxxx--|
D#||--3-3-333-3-33-3333------------------------------------------------1-11-xxx-x-xxxx--|


D#||--------------------------------------------------------------------------|
A#||--------------------------------------------------------------------------|
F#||--2-2-2222-22-2222--3-3-3333-33-3333--5-5-5555-55-5555--3-3---3--3--------|
C#||--0-0-0000-00-0000--3-3-3333-33-3333--3-3-3333-33-3333--1-1---1--1----3~--|
G#||--x-x-xxxx-xx-xxxx--1-1-1111-11-1111----------------------------------3~--|
D#||--3-3-3333-33-3333----------------------------------------------------1~--|



Pre-Chorus
Guitar 1/2:
D#||--------------------------------------------------------------------------------|
A#||--------------------------------------------------------------------------------|
F#||----------------------------------333-------888-------888-----------------------|
C#||--5-----------------3333333333333-333-88888-888-88888-888------------------555--|
G#||--5--55555555555333-1111111111111-----66666-----66666-----8888888877777777-555--|
D#||--3--33333333333111---------------------------------------6666666655555555-333--|
         .............. .............     .....     .....     ................



Chorus
Guitar 1/2:
D#||--------------------------------------------------------------------|
A#||--------------------------------------------------------------------|
F#||---8-88-8888-88-888------------------10-1010-10101010-101010--------|
C#||---8-88-8888-88-888-8-88-8888-88-888-10-1010-10101010-101010--3--4--|
G#||---6-66-6666-66-666-8-88-8888-88-888-8--8-8--8-8-8-8--8-8-8---3--4--|
D#||--------------------6-66-6666-66-666--------------------------1--2--|


D#||-------------------------------------------------------------------------------|
A#||-------------------------------------------------------------------------------|
F#||--------------------8-88-8888-88-888------------------10-1010-10101010-101010--|
C#||---5-55-5555-55-555-8-88-8888-88-888-8-88-8888-88-888-10-1010-10101010-101010--|
G#||---5-55-5555-55-555-6-66-6666-66-666-8-88-8888-88-888-8--8-8---8-8-8-8-8-8-8---|
D#||---3-33-3333-33-333------------------6-66-6666-66-666--------------------------|


D#||--------------------------|
A#||--------------------------|
F#||--8-----------------------|
C#||--8-888888-----pick-------|
G#||--6-666666--------slide---|
D#||--------------------------|
        ......



Verse
Guitar 1/2:
D#||------------------------------------------------------------------------------------|
A#||------------------------------------------------------------------------------------|
F#||--3-3-333-2-22-2222--3-3-333-2-22-2222--5-5-5555-55-5555--3-3-333-------------------|
C#||--0-0-000-0-00-0000--1-1-111-1-11-1111--3-3-3333-33-3333--1-1-111--3-33-------------|
G#||--x-x-xxx-x-xx-xxxx--1-1-111-1-11-1111-----------------------------3-33-xxx-x-xxxx--|
D#||--3-3-333-3-33-3333------------------------------------------------1-11-xxx-x-xxxx--|


D#||--------------------------------------------------------------------|
A#||--------------------------------------------------------------------|
F#||--2-2-2222-22-2222--3-3-3333-33-3333--5-5-5555-55-5555--3~-----5~---|
C#||--0-0-0000-00-0000--3-3-3333-33-3333--3-3-3333-33-3333--1~-----3~---|
G#||--x-x-xxxx-xx-xxxx--1-1-1111-11-1111--------------------------------|
D#||--3-3-3333-33-3333--------------------------------------------------|



Pre-Chorus
Guitar 1/2:
D#||--------------------------------------------------------------------------------|
A#||--------------------------------------------------------------------------------|
F#||----------------------------------333-------888-------888-----------------------|
C#||--5-----------------3333333333333-333-88888-888-88888-888------------------555--|
G#||--5--55555555555333-1111111111111-----66666-----66666-----8888888877777777-555--|
D#||--3--33333333333111---------------------------------------6666666655555555-333--|
         .............. .............     .....     .....     ................



Chorus
Guitar 1/2:
D#||--------------------------------------------------------------------|
A#||--------------------------------------------------------------------|
F#||---8-88-8888-88-888------------------10-1010-10101010-101010--------|
C#||---8-88-8888-88-888-8-88-8888-88-888-10-1010-10101010-101010--3--4--|
G#||---6-66-6666-66-666-8-88-8888-88-888-8--8-8--8-8-8-8--8-8-8---3--4--|
D#||--------------------6-66-6666-66-666--------------------------1--2--|


D#||-------------------------------------------------------------------------------|
A#||-------------------------------------------------------------------------------|
F#||--------------------8-88-8888-88-888------------------10-1010-10101010-101010--|
C#||---5-55-5555-55-555-8-88-8888-88-888-8-88-8888-88-888-10-1010-10101010-101010--|
G#||---5-55-5555-55-555-6-66-6666-66-666-8-88-8888-88-888-8--8-8---8-8-8-8-8-8-8---|
D#||---3-33-3333-33-333------------------6-66-6666-66-666--------------------------|



Bridge
Guitar 1/2:
D#||--------------------------------------------------------------------|
A#||--------------------------------------------------------------------|
F#||---8~-------10~-------------------------5~--------------------------|
C#||---8~-------10~-------5~-------8~-------5~-------8888888888888888---|
G#||---6~-------8~--------5~-------8~-------3~-------6666666666666666---|
D#||----------------------3~-------6~-----------------------------------|
                                                     ................



Interlude
Guitar 1:
D#||--------------------------------------------------------------------|
A#||--------------------------------------------------------------------|
F#||--------------------------------------------------------------------|
C#||----------3---1---0--------0---------------0------------------------| x3
G#||------1----------------1-------1-------0-------3---1---1---0---0----|
D#||--3-3---3---3---3---3----3---3---3-2-2---2---2---2---2---2---2---2--|


D#||------------------------------------------------------|
A#||------------------------------------------------------|
F#||------------------------------------------------------|
C#||----------3---1---0--------0--------------------------|
G#||------1----------------1-------1----0000000000000000--|
D#||--3-3---3---3---3---3----3---3---3--2222222222222222--|
                                        ................



Breakdown
Guitar 1/2:
D#||----------------------------------------------------------------|
A#||----------------------------------------------------------------|
F#||----------------------------------------------------------------|
C#||--000-----0---0--00--------------000-----0---0--00--------------| x4
G#||--111-----1---1--11---111--111---000-----0---0--00---000---000--|
D#||--333-----3---3--33---333--333---222-----2---2--22---222---222--|
                          ...  ...                       ...   ...


Guitar 1:
D#||--13---11----------------13---15---11--------------|
A#||------------15---11---------------------15b16r15---|
F#||---------------------------------------------------|
C#||---------------------------------------------------|
G#||---------------------------------------------------|
D#||---------------------------------------------------|


D#||--13---11-------------------------------|
A#||------------15---11---11h13-------------|
F#||-----------------------------14b15r14~--|
C#||----------------------------------------|
G#||----------------------------------------|
D#||----------------------------------------|


Guitar 1/2:
D#||-------|
A#||-------|
F#||-------|
C#||--555--|
G#||--555--|
D#||--333--|




Chorus / Outro
Guitar 1/2:
D#||--------------------------------------------------------------------|
A#||--------------------------------------------------------------------|
F#||---8-88-8888-88-888------------------10-1010-10101010-101010--------|
C#||---8-88-8888-88-888-8-88-8888-88-888-10-1010-10101010-101010--3--4--|
G#||---6-66-6666-66-666-8-88-8888-88-888-8--8-8--8-8-8-8--8-8-8---3--4--|
D#||--------------------6-66-6666-66-666--------------------------1--2--|


D#||-------------------------------------------------------------------------------|
A#||-------------------------------------------------------------------------------|
F#||--------------------8-88-8888-88-888------------------10-1010-10101010-101010--|
C#||---5-55-5555-55-555-8-88-8888-88-888-8-88-8888-88-888-10-1010-10101010-101010--|
G#||---5-55-5555-55-555-6-66-6666-66-666-8-88-8888-88-888-8--8-8---8-8-8-8-8-8-8---|
D#||---3-33-3333-33-333------------------6-66-6666-66-666--------------------------|


D#||---------------------------------------------|
A#||---------------------------------------------|
F#||--8----------------88888888888---------------|
C#||--8-88888888888888888888888888---3-4---5-\---|
G#||--6-66666666666666666666666666---3-4---5-\---|
D#||---------------------------------1-2---3-\---|
         ..............






____________________________________________________________________________________________________

                                      T04.   INTERVENTION
____________________________________________________________________________________________________





Tuning: Drop C# (C# G# C# F# A# D#)



Intro
Guitar 1:
D#||-------------------------------|
A#||-------------------------------|
F#||-------------------------------|
C#||---7~--------------------------|
G#||---7~-----8p7------10p8--------|
C#||---7~---------10p0------10p0---|



Verse
Guitar 1/2:
D#||--------------------------------------------------------------------|
A#||--------------------------------------------------------------------|
F#||--------------------------------------------------------------------|
C#||--------------------------------------------------------------------|
G#||--------8---7---5---7---8---7---------8---7---5---7---8---10-10-10--|
C#||--0-0-0---0---0---0---0---0---0-0-0-0---0---0---0---0---0-----------|
      . . .   .   .   .   .   .   . . . .   .   .   .   .   .


D#||---------------------------------------------------------------------------------------|
A#||---------------------------------------------------------------------------------------|
F#||---------------------------------------------------------------------------------------|
C#||---------------------------------------------------------------------------------------| x2
G#||--------10---8---10---12---10---8--------------12----10----12----13----12----10-10-10--|
C#||--8-8-8----8---8----8----8----8---8-8-10-10-10----10----10----10----10----10-----------|
      . . .    .   .    .    .    .   . . .  .  .     .   .  .    .     .     .



Pre-Chorus
Guitar 1/2:
D#||---------------------------------------|
A#||---------------------------------------|
F#||---------------------------------------|
C#||--0-00-000-8-88-888-5-55-555-7-7777-3--|
G#||--0-00-000-8-88-888-5-55-555-7-7777-3--|
C#||--0-00-000-8-88-888-5-55-555-7-7777-3--|


D#||-----------------------------------|
A#||-----------------------------------|
F#||-----------------------------------|
C#||--0-00-000-8-88-888-5-55-555-7777--|
G#||--0-00-000-8-88-888-5-55-555-7777--|
C#||--0-00-000-8-88-888-5-55-555-7777--|




Chorus
Guitar 1:
D#||------------------------------------------------------------------|
A#||------------------------------------------------------------------|
F#||---------------5--------------------------------------------------|
C#||--7--5-7-5-7-8-----------------5-------5-5-----5-5-7-7-5-5--------|
G#||------------------7--5-7-5-7-8----8--8-----8-8-------------8-8-7--|
C#||------------------------------------------------------------------|
         . . .           . . .

D#||------------------------------------------------------|
A#||------------------------------------------------------|
F#||---------------5--------------------------------------|
C#||--7--5-7-5-7-8-----------------5-------5-5-----5-5-7--|
G#||------------------7--5-7-5-7-8----8--8-----8-8--------|
C#||------------------------------------------------------|
         . . .           . . .


Guitar 2:
D#||--------------------------------------|--------------------------------|
A#||--------------------------------------|--------------------------------|
F#||--7-77-777----------------------------|--7-77-777----------------------|
C#||--7-77-777-5-55-555-8-88-888-888-888--|--7-77-777-5-55-555-8-88-88888--|
G#||--5-55-555-5-55-555-8-88-888-888-888--|--5-55-555-5-55-555-8-88-88888--|
C#||-----------5-55-555-8-88-888-888-888--|-----------5-55-555-8-88-88888--|



Verse
Guitar 1/2:
D#||--------------------------------------------------------------------|
A#||--------------------------------------------------------------------|
F#||--------------------------------------------------------------------|
C#||--------------------------------------------------------------------|
G#||--------8---7---5---7---8---7---------8---7---5---7---8---10-10-10--|
C#||--0-0-0---0---0---0---0---0---0-0-0-0---0---0---0---0---0-----------|
      . . .   .   .   .   .   .   . . . .   .   .   .   .   .


D#||---------------------------------------------------------------------------------------|
A#||---------------------------------------------------------------------------------------|
F#||---------------------------------------------------------------------------------------|
C#||---------------------------------------------------------------------------------------|
G#||--------10---8---10---12---10---8--------------12----10----12----13----12----10-10-10--|
C#||--8-8-8----8---8----8----8----8---8-8-10-10-10----10----10----10----10----10-----------|
      . . .    .   .    .    .    .   . . .  .  .     .   .  .    .     .     .


Guitar 1:
D#||--------------------------------------------------------------------|
A#||--------------------------------------------------------------------|
F#||--------------------------------------------------------------------|
C#||--------------------------------------------------------------------|
G#||--------8---7---5---7---8---7---------8---7---5---7---8---10-10-10--|
C#||--0-0-0---0---0---0---0---0---0-0-0-0---0---0---0---0---0-----------|
      . . .   .   .   .   .   .   . . . .   .   .   .   .   .


D#||---------------------------------------------------------------|
A#||---------------------------------------------------------------|
F#||---------------------------------------------------------------|
C#||---------------------------------------------------------------|
G#||--------10---8---10---12---10---8--------------12----10--------|
C#||--8-8-8----8---8----8----8----8---8-8-10-10-10----10----10-10--|
      . . .    .   .    .    .    .   . . .  .  .     .     .  .


Guitar 2:
D#||----------------------------------------|
A#||----------------------------------------|
F#||----------------------------------------|
C#||--0-0-0-----------------------0-0-0-0---|
G#||--0-0-0-----------------------0-0-0-0---|
C#||--0-0-0-----------------------0-0-0-0---|
      . . .                       . . . .


D#||---------------------------------------------------------|
A#||---------------------------------------------------------|
F#||---------------------------------------------------------|
C#||--8-8-8-----------------------8-10-10-10-10-10-10-10-10--|
G#||--8-8-8-----------------------8-10-10-10-10-10-10-10-10--|
C#||--8-8-8-----------------------8-10-10-10-10-10-10-10-10--|
      . . .                       . . . . .  .  .  .  .  .


Guitar 1/2:
D#||-----------|
A#||-----------|
F#||-----------|
C#||--888-7-5--|
G#||--888-7-5--|
C#||--888-7-5--|



Pre-Chorus
Guitar 1/2:
D#||---------------------------------------|
A#||---------------------------------------|
F#||---------------------------------------|
C#||--0-00-000-8-88-888-5-55-555-7-7777-3--|
G#||--0-00-000-8-88-888-5-55-555-7-7777-3--|
C#||--0-00-000-8-88-888-5-55-555-7-7777-3--|


D#||-----------------------------------|
A#||-----------------------------------|
F#||-----------------------------------|
C#||--0-00-000-8-88-888-5-55-555-7777--|
G#||--0-00-000-8-88-888-5-55-555-7777--|
C#||--0-00-000-8-88-888-5-55-555-7777--|



Chorus
Guitar 1:
D#||------------------------------------------------------------------|
A#||------------------------------------------------------------------|
F#||---------------5--------------------------------------------------|
C#||--7--5-7-5-7-8-----------------5-------5-5-----5-5-7-7-5-5--------|
G#||------------------7--5-7-5-7-8----8--8-----8-8-------------8-8-7--|
C#||------------------------------------------------------------------|
         . . .           . . .

D#||----------------------------------------------------------------|
A#||----------------------------------------------------------------|
F#||---------------5------------------------------------------------|
C#||--7--5-7-5-7-8-----------------5-------5-5-----5-5-7-7-5--------|
G#||------------------7--5-7-5-7-8----8--8-----8-8------------8--7--|
C#||----------------------------------------------------------------|
         . . .           . . .


Guitar 2:
D#||--------------------------------------|-------------------------------------|
A#||--------------------------------------|-------------------------------------|
F#||--7-77-777----------------------------|--7-77-777---------------------------|
C#||--7-77-777-5-55-555-8-88-888-888-888--|--7-77-777-5-55-555-8-88-888-8887-5--|
G#||--5-55-555-5-55-555-8-88-888-888-888--|--5-55-555-5-55-555-8-88-888-8887-5--|
C#||-----------5-55-555-8-88-888-888-888--|-----------5-55-555-8-88-888-8887-5--|



Bridge
Guitar 1:
D#||-------------------------------------------------------------------------------------|
A#||-------------------------------------------------------------------------------------|
F#||-10--10-10-10-10-10-10/12---9--9-9-9-9-9-555-7--10--9-99999999999--7-77-777-777-777--|
C#||-x---x--x--x--x--x--x-/x----x--x-x-x-x-x-xxx-x--x---x-xxxxxxxxxxx--x-xx-xxx-xxx-xxx--|
G#||-8---8--8--8--8--8--8-/10---7--7-7-7-7-7-333-5--8---7-77777777777--5-55-555-555-555--|
C#||-------------------------------------------------------------------------------------|


D#||------------------------------------------------------------------------------------------|
A#||------------------------------------------------------------------------------------------|
F#||-10--10-10-10-10-10-10/9---12-12-12-12-12-12--555-7--10--9-99999999999--7-77-777-777-777--|
C#||-x---x--x--x--x--x--x-/x---x--x--x--x--x--x---xxx-x--x---x-xxxxxxxxxxx--x-xx-xxx-xxx-xxx--|
G#||-8---8--8--8--8--8--8-/7---10-10-10-10-10-10--333-5--8---7-77777777777--5-55-555-555-555--|
C#||------------------------------------------------------------------------------------------|


Guitar 2:
D#||------------------------------------------------------------------------------------------|
A#||------------------------------------------------------------------------------------------|
F#||-10--10-10-10-10-10-10/9---12-12-12-12-12-12--555-7--10--9-99999999999--7-77-777-777-777--|
C#||-x---x--x--x--x--x--x-/x---x--x--x--x--x--x---xxx-x--x---x-xxxxxxxxxxx--x-xx-xxx-xxx-xxx--|
G#||-8---8--8--8--8--8--8-/7---10-10-10-10-10-10--333-5--8---7-77777777777--5-55-555-555-555--|
C#||------------------------------------------------------------------------------------------|


Guitar 3:
D#||-----------------------------------------------------------------------------------|
A#||-----------------------------------------------------------------------------------|
F#||-----------------------------------------------------------------------------------|
C#||--8--8-8-8-8-8-888--10--10-10-10-10-10-101010--0--0-0-0-0-0-000--5--5-5-5-5-5-555--| x2
G#||--8--8-8-8-8-8-888--10--10-10-10-10-10-101010--0--0-0-0-0-0-000--5--5-5-5-5-5-555--|
C#||--8--8-8-8-8-8-888--10--10-10-10-10-10-101010--0--0-0-0-0-0-000--5--5-5-5-5-5-555--|



Guitar 1:
D#||--------------------------------------------------------------------------------------|
A#||--------------------------------------------------------------------------------------|
F#||--------------------------------------------------------------------------------------|
C#||--------------------------------------------------------------------------------------|
G#||---------10---10p8-----------10---10p8-------------12---12p10-------------12---12p10--|
C#||--8---8---------------8---8---------------10---10----------------10---10--------------|
          .                   .                    .                      .


Guitar 2:
D#||--------------------------------------------------------------------------------|
A#||--------------------------------------------------------------------------------|
F#||--------------------------------------------------------------------------------|
C#||---------8---8p7-----------8---8p7-------------10---10p8-------------10---10p8--|
G#||--------------------------------------------------------------------------------|
C#||--8---8-------------8---8-------------10---10---------------10---10-------------|
          .                 .                  .                     .



Guitar 1/2:
D#||-------------------------------------------------------------------|
A#||-------------------------------------------------------------------|
F#||------101010\9-9-9~---9-9-9-9-7-7-7~---7-7-7-7-7-7-7~---7-7-7-7-7--|
C#||--0---x-x-x-\x-x-x----x-x-x-x-x-x-x----x-x-x-x-x-x-x----x-x-x-x-x--|
G#||--0---8-8-8-\7-7-7~---7-7-7-7-5-5-5~---5-5-5-5-5-5-5~---5-5-5-5-5--|
C#||--0----------------------------------------------------------------|



Guitar 1:
D#||--------------------------------|
A#||--------------------------------|
F#||-10--10-10-10-10-10-10/12---9~--|
C#||-x---x--x--x--x--x--x-/x----x~--|
G#||-8---8--8--8--8--8--8-/10---7~--|
C#||--------------------------------|


Guitar 2:
D#||--------------------------------|
A#||--------------------------------|
F#||-10--10-10-10-10-10-10/9---12~--|
C#||-x---x--x--x--x--x--x-/x---x----|
G#||-8---8--8--8--8--8--8-/7---10~--|
C#||--------------------------------|



Breakdown
Guitar 1:
D#||------------------------------------------------------|
A#||------------------------------------------------------|
F#||------------------------------------------------------|
C#||------------------------------------------------------|
G#||--0--888777555777888777555--0--888777555777888101010--|
C#||--0-------------------------0-------------------------|


D#||----------------------------------------------------------|
A#||----------------------------------------------------------|
F#||----------------------------------------------------------|
C#||----------------------------------------------------------|
G#||--8--101010888101010121212101010888777--10--121212101010--|
C#||--8-------------------------------------10----------------|


D#||----------------------------|
A#||----------------------------|
F#||--101010-999----------------|
C#||-------------121212-101010--|
G#||----------------------------|
C#||----------------------------|


Guitar 2:
D#||-------------------------------|
A#||-------------------------------|
F#||--141414-121212-101010---------|
C#||-----------------------141414--|
G#||-------------------------------|
C#||-------------------------------|


Guitar 3:
D#||------------------------------------------------------|
A#||------------------------------------------------------|
F#||------------------------------------------------------|
C#||------------------------------------------------------|
G#||--0-------------------------0-------------------------|
C#||--0-------------------------0-------------------------|


D#||----------------------------------------------------------|
A#||----------------------------------------------------------|
F#||----------------------------------------------------------|
C#||----------------------------------------------------------|
G#||--8-------------------------------------10----------------|
C#||--8-------------------------------------10----------------|


D#||--------|
A#||--------|
F#||--------|
C#||--------|
G#||--/14\--|
C#||--/14\--|



Guitar 1:
D#||------------------------------------------------------|
A#||------------------------------------------------------|
F#||------------------------------------------------------|
C#||----------------------------------------555-----------|
G#||--0--888777555777888777555--0--888777888---888777888--|
C#||--0-------------------------0-------------------------|


D#||--------------------------------------------------------------|
A#||--------------------------------------------------------------|
F#||---------------------------777666777999101010999101010121212--|
C#||-----777555777888777555---------------------------------------|
G#||--5--------------------888------------------------------------|
C#||--5-----------------------------------------------------------|


D#||------------------------------------------------------|
A#||------------------------------------------------------|
F#||------------------------------------------------------|
C#||-----777555--------------------777555-----------------|
G#||--0--------888777888777555--0--------888777888777888--|
C#||--0-------------------------0-------------------------|


D#||----------------------------------------------------------|
A#||----------------------------------------------------------|
F#||----------------------------------------------------------|
C#||----------------------------------------------------------|
G#||--8--101010888101010121212101010888777--10--121212101010--|
C#||--8-------------------------------------10----------------|


D#||----------------------------|
A#||----------------------------|
F#||--101010-999----------------|
C#||-------------121212-101010--|
G#||----------------------------|
C#||----------------------------|


Guitar 2:
D#||-------------------------------|
A#||-------------------------------|
F#||--141414-121212-101010---------|
C#||-----------------------141414--|
G#||-------------------------------|
C#||-------------------------------|


Guitar 1:
D#||------------------------------------------------------|
A#||------------------------------------------------------|
F#||------------------------------------------------------|
C#||----------------------------------------555-----------|
G#||--0--888777555777888777555--0--888777888---888777888--|
C#||--0-------------------------0-------------------------|


D#||---------------------------------------------------|
A#||---------------------------------------------------|
F#||----------------------------------101010-9---------|
C#||-----555---555777555777888--7~-------------10-12~--|
G#||--5-----888-----------------4~---------------------|
C#||--5------------------------------------------------|


Guitar 3:
D#||------------------------------------------------------|
A#||------------------------------------------------------|
F#||------------------------------------------------------|
C#||--00----------------0-----000-------------------------|
G#||--00----------------0-----000-------------------------|
C#||--00----------------0-----000-------------------------|


D#||------------------------------------------------------|
A#||------------------------------------------------------|
F#||------------------------------------------------------|
C#||--55----------------55----577-------------------------|
G#||--55----------------55----577-------------------------|
C#||--55----------------55----577-------------------------|


D#||--------|
A#||--------|
F#||--------|
C#||--/14\--|
G#||--/14\--|
C#||--/14\--|


D#||------------------------------------------------------|
A#||------------------------------------------------------|
F#||------------------------------------------------------|
C#||--00----------------0-----000-------------------------|
G#||--00----------------0-----000-------------------------|
C#||--00----------------0-----000-------------------------|


D#||------------------------------------------------------|
A#||------------------------------------------------------|
F#||------------------------------------------------------|
C#||--88----------------88----81010-----------------------|
G#||--88----------------88----81010-----------------------|
C#||--88----------------88----81010-----------------------|


D#||--------|
A#||--------|
F#||--------|
C#||--/14\--|
G#||--/14\--|
C#||--/14\--|


D#||------------------------------------------------------|
A#||------------------------------------------------------|
F#||------------------------------------------------------|
C#||--00----------------0-----000-------------------------|
G#||--00----------------0-----000-------------------------|
C#||--00----------------0-----000-------------------------|


D#||------------------------------------------------------|
A#||------------------------------------------------------|
F#||------------------------------------------------------|
C#||--55-----------------888-7--5-------------------------|
G#||--55-----------------888-7--5-------------------------|
C#||--55-----------------888-7--5-------------------------|



Pre-Chorus
Guitar 1/2:
D#||---------------------------------------|
A#||---------------------------------------|
F#||---------------------------------------|
C#||--0-00-000-8-88-888-5-55-555-7-7777-3--|
G#||--0-00-000-8-88-888-5-55-555-7-7777-3--|
C#||--0-00-000-8-88-888-5-55-555-7-7777-3--|


D#||-----------------------------------|
A#||-----------------------------------|
F#||-----------------------------------|
C#||--0-00-000-8-88-888-5-55-555-7777--|
G#||--0-00-000-8-88-888-5-55-555-7777--|
C#||--0-00-000-8-88-888-5-55-555-7777--|



Chorus
Guitar 1:
D#||------------------------------------------------------------------------|
A#||------------------------------------------------------------------------|
F#||---------------5--------------------------------------------------------|
C#||--7--5-7-5-7-8-----------------5-------5-5-----5-5-7-7-5-5--------------|
G#||------------------7--5-7-5-7-8----8--8-----8-8-------------8-8-7---5~\--|
C#||------------------------------------------------------------------------|
         . . .           . . .

D#||----------------------------------------------------------------|
A#||----------------------------------------------------------------|
F#||---------------5------------------------------------------------|
C#||--7--5-7-5-7-8-----------------5-------5-5-----5-5-7-7-5--------|
G#||------------------7--5-7-5-7-8----8--8-----8-8------------8--7--|
C#||----------------------------------------------------------------|
         . . .           . . .


Guitar 2:
D#||--------------------------------------|------------------------------------------|
A#||--------------------------------------|------------------------------------------|
F#||--7-77-777----------------------------|--7-77-777--------------------------------|
C#||--7-77-777-5-55-555-8-88-888-888-888--|--7-77-777-5-55-555-8-88-888-8887-5---0~--|
G#||--5-55-555-5-55-555-8-88-888-888-888--|--5-55-555-5-55-555-8-88-888-8887-5---0~--|
C#||-----------5-55-555-8-88-888-888-888--|-----------5-55-555-8-88-888-8887-5---0~--|





____________________________________________________________________________________________________

                                  T05.   GOOD LUCK WITH YOUR LIVES
____________________________________________________________________________________________________





Tuning: Drop C# (C# G# C# F# A# D#)



Intro
Guitar 1:
D#||-------------------------------------------------------|
A#||----13-12------10--------------------------------------|
F#||--9-------9/10----10\9----9---9--9-9-9---9~------------|
C#||-----------------------12----------------10~-----10p9--|
G#||-------------------------------------------------------|
C#||-------------------------------------------------------|


D#||-----------------------------------10~-----------------|
A#||-------12h13p12-10\9-10---12---13---------13---12--13--|
F#||--9/10-------------------------------------------------|
C#||-------------------------------------------------------| x2
G#||-------------------------------------------------------|
C#||-------------------------------------------------------|


Guitar 2:
D#||-------------------------------------------------------|
A#||-------------------------------------------------------|
F#||-------------------------------------------------------|
C#||--7~-------------------------------------3~------------| x4
G#||--7~-------------------------------------3~------------|
C#||--7~-------------------------------------3~------------|



Pre-Chorus
Guitar 1/2:
D#||-------------------------|-------------------------|----------------------------------|
A#||-------------------------|-------------------------|----------------------------------|
F#||---9~-------9------12~---|---9~-------9------12~---|---9~-------9------12~------------|
C#||---x--------x------x-----|---x--------x------x-----|---x--------x------x----------33--|
G#||---5~-------5-x-x--8~----|---5~-------5-x-x--8~----|---5~-------5-x-x--8~----3333333--|
C#||-------------------------|-------------------------|-------------------------3333333--|
                                                                                 .....


Chorus
Guitar 1/2:
D#||--------------------------------------------------------|
A#||--------------------------------------------------------|
F#||-----10-10-9--9------7-7-9-9------7-7-5-5------4-4-5-5--|
C#||-77--x--x--x--x--55--x-x-x-x--33--x-x-x-x--33--x-x-x-x--|
G#||-77--8--8--7--7--55--5-5-7-7--33--5-5-3-3--33--2-2-3-3--|
C#||-77--------------55-----------33-----------33-----------|


D#||------------------------------------------------------|
A#||------------------------------------------------------|
F#||-----10-10-9--9------7-7-9-9------7-7-5-5-------------|
C#||-77--x--x--x--x--55--x-x-x-x--33--x-x-x-x--33---33-5--| x2
G#||-77--8--8--7--7--55--5-5-7-7--33--5-5-3-3--33---33-5--|
C#||-77--------------55-----------33-----------33---33-5--|



Verse
Guitar 1:
D#||-------------------------------------------------------|
A#||----13-12------10--------------------------------------|
F#||--9-------9/10----10\9----9---9--9-9-9---9~------------|
C#||-----------------------12----------------10~-----10p9--|
G#||-------------------------------------------------------|
C#||-------------------------------------------------------|


D#||-----------------------------------10~-----------------|
A#||-------12h13p12-10\9-10---12---13---------13---12--13--|
F#||--9/10-------------------------------------------------|
C#||-------------------------------------------------------| x2
G#||-------------------------------------------------------|
C#||-------------------------------------------------------|


Guitar 2:
D#||-------------------------------------------------------|
A#||-------------------------------------------------------|
F#||-------------------------------------------------------|
C#||--7~-------------------------------------3~------------| x4
G#||--7~-------------------------------------3~------------|
C#||--7~-------------------------------------3~------------|



Pre-Chorus
Guitar 1/2:
D#||-------------------------|-------------------------|----------------------------------|
A#||-------------------------|-------------------------|----------------------------------|
F#||---9~-------9------12~---|---9~-------9------12~---|---9~-------9------12~------------|
C#||---x--------x------x-----|---x--------x------x-----|---x--------x------x----------33--|
G#||---5~-------5-x-x--8~----|---5~-------5-x-x--8~----|---5~-------5-x-x--8~----3333333--|
C#||-------------------------|-------------------------|-------------------------3333333--|
                                                                                 .....


Chorus
Guitar 1/2:
D#||--------------------------------------------------------|
A#||--------------------------------------------------------|
F#||-----10-10-9--9------7-7-9-9------7-7-5-5------4-4-5-5--|
C#||-77--x--x--x--x--55--x-x-x-x--33--x-x-x-x--33--x-x-x-x--|
G#||-77--8--8--7--7--55--5-5-7-7--33--5-5-3-3--33--2-2-3-3--|
C#||-77--------------55-----------33-----------33-----------|


D#||------------------------------------------------------|
A#||------------------------------------------------------|
F#||-----10-10-9--9------7-7-9-9------7-7-5-5-------------|
C#||-77--x--x--x--x--55--x-x-x-x--33--x-x-x-x--33---33-5--| x2
G#||-77--8--8--7--7--55--5-5-7-7--33--5-5-3-3--33---33-5--|
C#||-77--------------55-----------33-----------33---33-5--|


D#||------------------------------------|
A#||------------------------------------|
F#||------------------------------------|
C#||-33---33-2-33---33-5-33---33-5-7-\--|
G#||-33---33-2-33---33-5-33---33-5-7-\--|
C#||-33---33-2-33---33-5-33---33-5-7-\--|



Bridge
Guitar 1:
D#||---------------------------------------------------|
A#||---------------------------------------------------|
F#||-----9h10p9---------------12---------12------------|
C#||-(7)--------10h12-10p9-10----10p9h10----10p9---3~--|
G#||-(7)-------------------------------------------3~--|
C#||-(7)-------------------------------------------3~--|


D#||---------------------------------------------------|
A#||---------------------------------------------------|
F#||-----9h10p9---------------12---------12------------|
C#||-7-7--------10h12-10p9-10----10p9h10----10p9---9~--|
G#||-7-7-----------------------------------------------|
C#||-7-7-----------------------------------------------|


D#||--------------------|
A#||--------------------|
F#||----------------9~--|
C#||--10~----12~--------|
G#||--------------------|
C#||--------------------|


Guitar 2:
D#||---------------------------------------------------|
A#||---------------------------------------------------|
F#||---------------------------------------------------|
C#||-(7-\)-----------------------------------------3~--|
G#||-(7-\)-----------------------------------------3~--|
C#||-(7-\)-----------------------------------------3~--|


D#||---------------------------------------------------|
A#||---------------------------------------------------|
F#||---------------------------------------------------|
C#||--7-7-\----------------------------------------3~--|
G#||--7-7-\----------------------------------------3~--|
C#||--7-7-\----------------------------------------3~--|


D#||-------------------|
A#||-------------------|
F#||-------------------|
C#||--3-3-3-3-3-3-3-3--|
G#||--3-3-3-3-3-3-3-3--|
C#||--3-3-3-3-3-3-3-3--|
      . . . . . . . .



Solo
Guitar 1:
D#||---12--------------------------------------------|
A#||--------13---10-----------10---------------------|
F#||------------------12---12----------9-------------|
C#||------------------------------12-----------------|
G#||---------------------------------------12---10---|
C#||-------------------------------------------------|


D#||---12-------------15---15------------------------|
A#||--------13---10-----------10--12---13--13~-------|
F#||-------------------------------------------------|
C#||-------------------------------------------------|
G#||-------------------------------------------------|
C#||-------------------------------------------------|


D#||---12--------------------------------------------|
A#||--------13---10-----------10---------------------|
F#||------------------12---12----------9-------------|
C#||------------------------------12-----------------|
G#||---------------------------------------12---10---|
C#||-------------------------------------------------|


D#||---12-------------15---15---------------10~------|
A#||--------13---10-----------10--12---13------------|
F#||-------------------------------------------------|
C#||-------------------------------------------------|
G#||-------------------------------------------------|
C#||-------------------------------------------------|


D#||--12~--|
A#||-------|
F#||-------|
C#||-------|
G#||-------|
C#||-------|


Guitar 2:
D#||-----------------------------------------------------------|
A#||-----------------------------------------------------------|
F#||-----------------------------------------------------------|
C#||-777------------777----------------333---------333---------| x4
G#||-777--10-10-10--777--10-10-10-7-7--333--3-3-3--333--3-3-5--|
C#||-777------------777----------------333---------333---------|



Pre-Chorus
Guitar 1/2:
D#||-------------------------|-------------------------|---------------------------------|
A#||-------------------------|-------------------------|---------------------------------|
F#||---9~-------9------12~---|---9~-------9------12~---|---9~-------9------12~-----------|
C#||---x--------x------x-----|---x--------x------x-----|---x--------x------x--------(3)--|
G#||---5~-------5-x-x--8~----|---5~-------5-x-x--8~----|---5~-------5-x-x--8~-------(3)--|
C#||-------------------------|-------------------------|----------------------------(3)--|



Chorus
Guitar 1/2:
D#||--------------------------------------------------------|
A#||--------------------------------------------------------|
F#||-----10-10-9--9------7-7-9-9------7-7-5-5------4-4-5-5--|
C#||-77--x--x--x--x--55--x-x-x-x--33--x-x-x-x--33--x-x-x-x--|
G#||-77--8--8--7--7--55--5-5-7-7--33--5-5-3-3--33--2-2-3-3--|
C#||-77--------------55-----------33-----------33-----------|


D#||------------------------------------------------------|
A#||------------------------------------------------------|
F#||-----10-10-9--9------7-7-9-9------7-7-5-5-------------|
C#||-77--x--x--x--x--55--x-x-x-x--33--x-x-x-x--33---33-5--| x2
G#||-77--8--8--7--7--55--5-5-7-7--33--5-5-3-3--33---33-5--|
C#||-77--------------55-----------33-----------33---33-5--|



Outro
Guitar 1:
D#||---------------------------------------------------------|
A#||---------------------------------------------------------|
F#||---------------------------------------------------------|
C#||-77------------55------------33------------33------------| x3
G#||-77---8-7-8~---55---5-7-5~---33---8-7-8~---33---2-3-2~---|
C#||-77------------55------------33------------33------------|
     ..            ..            ..            ..

D#||----------------------------------------------------------|
A#||----------------------------------------------------------|
F#||----------------------------------------------------------|
C#||-77------------55------------33------------33---33-5-7-\--|
G#||-77---8-7-8~---55---5-7-5~---33---8-7-8~---33---33-5-7-\--|
C#||-77------------55------------33------------33---33-5-7-\--|
     ..            ..            ..


Guitar 2:
D#||----------------------------------------------------------|
A#||----------------------------------------------------------|
F#||----------------------------------------------------------|
C#||-77---7-5-7~---55---9-10-9~---33---7-5-7~---33---5-7-5~---| x3
G#||-77------------55-------------33------------33------------|
C#||-77------------55-------------33------------33------------|
     ..            ..             ..            ..

D#||-----------------------------------------------------------|
A#||-----------------------------------------------------------|
F#||-----------------------------------------------------------|
C#||-77---7-5-7~---55---9-10-9~---33---7-5-7~---33---33-5-7-\--|
G#||-77------------55-------------33------------33---33-5-7-\--|
C#||-77------------55-------------33------------33---33-5-7-\--|
     ..            ..             ..






____________________________________________________________________________________________________

                                      T06.   TEXAS MICKEY
____________________________________________________________________________________________________





Tuning: Drop C# (C# G# C# F# A# D#)



Intro
Guitar 1:
D#||----------------------------------------|
A#||----------------------------------------|
F#||----------------------------------------|
C#||---------------------------9-9-9-10-10--| x2
G#||--------7-7-7-8-8-10-10-10--------------|
C#||--7-7-7---------------------------------|


Guitar 1/2:
D#||----------------------------------------|
A#||----------------------------------------|
F#||----------------------------------------|
C#||---------------------------9-9-9-10-10--| x2
G#||--------7-7-7-8-8-10-10-10--------------|
C#||--7-7-7---------------------------------|



Verse
Guitar 1/2:
D#||--------------------------------------------|
A#||--------------------------------------------|
F#||--------------------------------------------|
C#||--9999----10101010----333-5-55-555-555-555--| x2
G#||--7777-77-7-7-7-7--77-333-5-55-555-555-555--|
C#||--7777-77-7-7-7-7--77-333-5-55-555-555-555--|
           ..          ..


D#||----------------------------------------------------------------|
A#||----------------------------------------------------------------|
F#||----------------------------------------------------------------|
C#||--7-7-777-5--55--5555--7-7-777-3--33--3333-3-3-333-5--55--5555--|
G#||--7-7-777-5--55--5555--7-7-777-3--33--3333-3-3-333-5--55--5555--|
C#||--7-7-777-5--55--5555--7-7-777-3--33--3333-3-3-333-5--55--5555--|


D#||----------------------------------------|
A#||----------------------------------------|
F#||----------------------------------------|
C#||---------------------------9-9-9-10-10--|
G#||--------7-7-7-8-8-10-10-10--------------|
C#||--7-7-7---------------------------------|


D#||------------------------------|
A#||------------------------------|
F#||------------------------------|
C#||--10-10-10-10-10-10-10-10-10--|
G#||--12-12-12-12-12-12-12-12-12--|
C#||------------------------------|



Chorus
Guitar 1\2:
D#||-----------------------------------------------------------------------------------|
A#||-----------------------------------------------------------------------------------|
F#||--5-55-5555-55-555-9--9-9--9-9-9-9--9-9--9-9-9--4-44-4444-44-444-0-00-0000-00-000--|
C#||--7-77-7777-77-777-10-1010-10101010-1010-101010-5-55-5555-55-555-2-22-2222-22-222--|
G#||--7-77-7777-77-777-10-1010-10101010-1010-101010-5-55-5555-55-555-2-22-2222-22-222--|
C#||--7-77-7777-77-777-10-1010-10101010-1010-101010-5-55-5555-55-555-2-22-2222-22-222--|


D#||-------------------------------------------------------------------------------------|
A#||-------------------------------------------------------------------------------------|
F#||--5-55-5555-55-555-9--9-9--9-9-9-9--9-9--9-9-9--4-44-4444-44-444-2-22-222-4-44-4444--|
C#||--7-77-7777-77-777-10-1010-10101010-1010-101010-5-55-5555-55-555-3-33-333-5-55-5555--|
G#||--7-77-7777-77-777-10-1010-10101010-1010-101010-5-55-5555-55-555-3-33-333-5-55-5555--|
C#||--7-77-7777-77-777-10-1010-10101010-1010-101010-5-55-5555-55-555-3-33-333-5-55-5555--|


D#||----------------------------------------|
A#||----------------------------------------|
F#||----------------------------------------|
C#||---------------------------9-9-9-10-10--| x2
G#||--------7-7-7-8-8-10-10-10--------------|
C#||--7-7-7---------------------------------|



Verse
Guitar 1/2:
D#||--------------------------------------------|
A#||--------------------------------------------|
F#||--------------------------------------------|
C#||--9999----10101010----333-5-55-555-555-555--| x2
G#||--7777-77-7-7-7-7--77-333-5-55-555-555-555--|
C#||--7777-77-7-7-7-7--77-333-5-55-555-555-555--|
           ..          ..


D#||----------------------------------------------------------------|
A#||----------------------------------------------------------------|
F#||----------------------------------------------------------------|
C#||--7-7-777-5--55--5555--7-7-777-3--33--3333-3-3-333-5--55--5555--|
G#||--7-7-777-5--55--5555--7-7-777-3--33--3333-3-3-333-5--55--5555--|
C#||--7-7-777-5--55--5555--7-7-777-3--33--3333-3-3-333-5--55--5555--|


D#||----------------------------------------|
A#||----------------------------------------|
F#||----------------------------------------|
C#||---------------------------9-9-9-10-10--|
G#||--------7-7-7-8-8-10-10-10--------------|
C#||--7-7-7---------------------------------|


D#||------------------------------|
A#||------------------------------|
F#||------------------------------|
C#||--10-10-10-10-10-10-10-10-10--|
G#||--12-12-12-12-12-12-12-12-12--|
C#||------------------------------|


D#||-------|
A#||-------|
F#||-------|
C#||--13\--|
G#||--13\--|
C#||--13\--|



Chorus
Guitar 1\2:
D#||-----------------------------------------------------------------------------------|
A#||-----------------------------------------------------------------------------------|
F#||--5-55-5555-55-555-9--9-9--9-9-9-9--9-9--9-9-9--4-44-4444-44-444-0-00-0000-00-000--|
C#||--7-77-7777-77-777-10-1010-10101010-1010-101010-5-55-5555-55-555-2-22-2222-22-222--|
G#||--7-77-7777-77-777-10-1010-10101010-1010-101010-5-55-5555-55-555-2-22-2222-22-222--|
C#||--7-77-7777-77-777-10-1010-10101010-1010-101010-5-55-5555-55-555-2-22-2222-22-222--|


D#||-----------------------------------------------------------------------------------|
A#||-----------------------------------------------------------------------------------|
F#||--5-55-5555-55-555-9--9-9--9-9-9-9--9-9--9-9-9--4-44-4444-44-444-2-22-2222-22-222--|
C#||--7-77-7777-77-777-10-1010-10101010-1010-101010-5-55-5555-55-555-3-33-3333-33-333--|
G#||--7-77-7777-77-777-10-1010-10101010-1010-101010-5-55-5555-55-555-3-33-3333-33-333--|
C#||--7-77-7777-77-777-10-1010-10101010-1010-101010-5-55-5555-55-555-3-33-3333-33-333--|


D#||---------------------|
A#||---------------------|
F#||--2-22-222-4-44-444--|
C#||--3-33-333-5-55-555--|
G#||--3-33-333-5-55-555--|
C#||--3-33-333-5-55-555--|



Bridge
Guitar 1:
D#||-----------------------------------|
A#||-----------------------------------|
F#||-----------------------------------|
C#||--------9~---------7~---------5~---|
G#||-----7----------5----------3-------|
C#||--7----------5----------3----------|


Guitar 1/2:
D#||------------------------------|
A#||------------------------------|
F#||------------------------------|
C#||--9-9-9~----7-7-7~----5-5-5~--| x2
G#||--7-7-7~----5-5-5~----3-3-3~--|
C#||--7-7-7~----5-5-5~----3-3-3~--|


Guitar 1:
D#||------------------------|
A#||------------------------|
F#||--5---4------5---4------|
C#||----------5----------5--|
G#||------------------------|
C#||------------------------|


Guitar 2:
D#||---------------------------|
A#||---------------------------|
F#||---------------------------|
C#||---------------------13\---|
G#||--3-3-3-3-3-3-3-3-3--13\---|
C#||--3-3-3-3-3-3-3-3-3--13\---|
      . . . . . . . . .



Bridge / Outro
Guitar 1:
D#||-----------------------------------------------------------|
A#||-----------------------------------------------------------|
F#||--9--7--9~----/9--7--5-7--5--4-5--4--5~----5--4--5--5/7~---|
C#||--x--x--x-----/x--x--x-x--x--x-x--x--x-----x--x--x--x/x----|
G#||--7--5--7~----/7--5--3-5--3--2-3--2--3~----3--2--3--3/5~---| x3
C#||-----------------------------------------------------------|


D#||---------------------------------------|
A#||---------------------------------------|
F#||--9--7--9~----/9--7--5-7--5---/7--5~---|
C#||--x--x--x-----/x--x--x-x--x---/x--x----|
G#||--7--5--7~----/7--5--3-5--3---/5--3~---|
C#||---------------------------------------|


Guitar 2:
D#||----------------------------------------|
A#||----------------------------------------|
F#||----------------------------------------|
C#||--9-9-9~----7-7-7~----5-5-5~----5-5-5~--| x3
G#||--7-7-7~----5-5-5~----3-3-3~----3-3-3~--|
C#||--7-7-7~----5-5-5~----3-3-3~----3-3-3~--|


D#||----------------------------|
A#||----------------------------|
F#||----------------------------|
C#||--9-9-9~----7-7-7~-----5~---|
G#||--7-7-7~----5-5-5~-----3~---|
C#||--7-7-7~----5-5-5~-----3~---|





____________________________________________________________________________________________________

                                       T07.   THE ARTIST
____________________________________________________________________________________________________





Tuning: Drop C# (C# G# C# F# A# D#)



Intro
Guitar 1/2:
D#||------------|------------|
A#||------------|------------|
F#||------------|------------|
C#||--pick------|--pick------|
G#||-----slide--|-----slide--|
C#||------------|------------|



Verse
Guitar 1:
D#||----------------------------------|
A#||-----6-----6-6-6-----6-----5-5-5--|
F#||-----7-----7-7-7-----7-----6-6-6--|
C#||--0----8----------5----7----------| x2
G#||--0----8----------5----7----------|
C#||--0----8----------5----7----------|


D#||----------------------------------------|
A#||----------------------------------------|
F#||--7-7--10---14-12-10--10-10-9---10-9-5--|
C#||--x-x--x----x--x--x---x--x--x---x--x-x--|
G#||--5-5--8----12-10-8---8--8--7---8--7-3--|
C#||----------------------------------------|


D#||----------------------------------------|
A#||----------------------------------------|
F#||--7-7--10---14-12-10--10-10-9---9-10-12-|
C#||--x-x--x----x--x--x---x--x--x---x-x--x--|
G#||--5-5--8----12-10-8---8--8--7---7-8--10-|
C#||----------------------------------------|


Guitar 2:
D#||---------------------------------|
A#||---------------------------------|
F#||---------------------------------|
C#||--0-0--8---8-8-8--5-5-7---7-7-7--| x4
G#||--0-0--8---8-8-8--5-5-7---7-7-7--|
C#||--0-0--8---8-8-8--5-5-7---7-7-7--|



Chorus
Guitar 1:
D#||----------------------------------------------------------------------|
A#||----------------------------------------------------------------------|
F#||-----------------------------------------0----------------------------|
C#||-------------0-3-2-----------------0-3-2-----------------0-3-2h3p2----|
G#||-0000~--00---------3---0000~--00-------------0000~---00------------3--|
C#||-0000~--00-------------0000~--00-------------0000~---00---------------|
     ....   ..             ....   ..             ....    ..

D#||------------|
A#||------------|
F#||-3333-------|
C#||-3333-1111--|
G#||-1111-1111--|
C#||------1111--|


D#||----------------------------------------------------------------------|
A#||----------------------------------------------------------------------|
F#||-----------------------------------------0----------------------------|
C#||-------------0-3-2-----------------0-3-2-----------------0-3-2h3p2----|
G#||-0000~--00---------3---0000~--00-------------0000~---00------------3--|
C#||-0000~--00-------------0000~--00-------------0000~---00---------------|
     ....   ..             ....   ..             ....    ..

D#||----------|
A#||----------|
F#||-3333-----|
C#||-3333-1---|
G#||-1111-1---|
C#||------1---|


Guitar 2:
D#||----------------------------------------------------------------------|
A#||----------------------------------------------------------------------|
F#||---------------2-0-----------------------------------------2-0h2p0----|
C#||-------------3-----2-----------------0---2---------------3---------2--|
G#||-0000~--00-------------0000~--00---1---3-----0000~---00---------------|
C#||-0000~--00-------------0000~--00-------------0000~---00---------------|
     ....   ..             ....   ..             ....    ..

D#||------------|
A#||------------|
F#||-3333-------|
C#||-3333-1111--|
G#||-1111-1111--|
C#||------1111--|


D#||----------------------------------------------------------------------|
A#||----------------------------------------------------------------------|
F#||---------------2-0-----------------------------------------2-0h2p0----|
C#||-------------3-----2-----------------0---2---------------3---------2--|
G#||-0000~--00-------------0000~--00---1---3-----0000~---00---------------|
C#||-0000~--00-------------0000~--00-------------0000~---00---------------|
     ....   ..             ....   ..             ....    ..

D#||----------|
A#||----------|
F#||-3333-----|
C#||-3333-1---|
G#||-1111-1---|
C#||------1---|



Verse
Guitar 1:
D#||----------------------------------|
A#||-----6-----6-6-6-----6-----5-5-5--|
F#||-----7-----7-7-7-----7-----6-6-6--|
C#||--0----8----------5----7----------| x2
G#||--0----8----------5----7----------|
C#||--0----8----------5----7----------|


D#||----------------------------------------|
A#||----------------------------------------|
F#||--7-7--10---14-12-10--10-10-9---10-9-5--|
C#||--x-x--x----x--x--x---x--x--x---x--x-x--|
G#||--5-5--8----12-10-8---8--8--7---8--7-3--|
C#||----------------------------------------|


D#||----------------------------------------|
A#||----------------------------------------|
F#||--7-7--10---14-12-10--10-10-9---9-10-12-|
C#||--x-x--x----x--x--x---x--x--x---x-x--x--|
G#||--5-5--8----12-10-8---8--8--7---7-8--10-|
C#||----------------------------------------|


Guitar 2:
D#||---------------------------------|
A#||---------------------------------|
F#||---------------------------------|
C#||--0-0--8---8-8-8--5-5-7---7-7-7--| x4
G#||--0-0--8---8-8-8--5-5-7---7-7-7--|
C#||--0-0--8---8-8-8--5-5-7---7-7-7--|



Chorus
Guitar 1:
D#||----------------------------------------------------------------------|
A#||----------------------------------------------------------------------|
F#||-----------------------------------------0----------------------------|
C#||-------------0-3-2-----------------0-3-2-----------------0-3-2h3p2----|
G#||-0000~--00---------3---0000~--00-------------0000~---00------------3--|
C#||-0000~--00-------------0000~--00-------------0000~---00---------------|
     ....   ..             ....   ..             ....    ..

D#||------------|
A#||------------|
F#||-3333-------|
C#||-3333-1111--| x2
G#||-1111-1111--|
C#||------1111--|


Guitar 2:
D#||----------------------------------------------------------------------|
A#||----------------------------------------------------------------------|
F#||---------------2-0-----------------------------------------2-0h2p0----|
C#||-------------3-----2-----------------0---2---------------3---------2--|
G#||-0000~--00-------------0000~--00---1---3-----0000~---00---------------|
C#||-0000~--00-------------0000~--00-------------0000~---00---------------|
     ....   ..             ....   ..             ....    ..

D#||------------|
A#||------------|
F#||-3333-------|
C#||-3333-1111--|
G#||-1111-1111--| x2
C#||------1111--|



Bridge
Guitar 1:
D#||------------------------------------------|
A#||------------6---6~------------------------|
F#||------------7---7~-------3-3--------------|
C#||---0~--------------------3-3---1---3--1---| x2
G#||---0~--------------------1-1---1---3--1---|
C#||---0~--------------------------1---3--1---|


Guitar 2:
D#||------------------------------------------|
A#||------------------------------------------|
F#||-------------------------3-3--------------|
C#||---0~--------------------3-3---1---3--1---|
G#||---0~--------------------1-1---1---3--1---|
C#||---0~--------------------------1---3--1---|


D#||------------------------------------------|
A#||------------------------------------------|
F#||------------7---7~-------3-3--------------|
C#||---0~-------x---x--------3-3---1---3--1---|
G#||---0~-------5---5~-------1-1---1---3--1---|
C#||---0~--------------------------1---3--1---|


Guitar 1:
D#||--------------------------------------|
A#||-----------------------------6---6----|
F#||-----------------------------7---7----|
C#||--------------------------------------|
G#||--0-0-0-0-0-0-0-0-0-0-0-0-0----0------|
C#||--0-0-0-0-0-0-0-0-0-0-0-0-0----0------|
      . . . . . . . . . . . . .    .

D#||--------------------------------------|
A#||--------------------------------------|
F#||-------------------3-3----------------|
C#||-------------------3-3---1---3--1-----| x2
G#||--0-0-0-0-0-0-0-0--1-1---1---3--1-----|
C#||--0-0-0-0-0-0-0-0--------1---3--1-----|
      . . . . . . . .


Guitar 2:
D#||--------------------------------------|
A#||--------------------------------------|
F#||-----------------------------7---7----|
C#||-----------------------------x---x----|
G#||--0-0-0-0-0-0-0-0-0-0-0-0-0--5-0-5----|
C#||--0-0-0-0-0-0-0-0-0-0-0-0-0----0------|
      . . . . . . . . . . . . .    .

D#||--------------------------------------|
A#||--------------------------------------|
F#||-------------------3-3----------------|
C#||-------------------3-3---1---3--1-----| x2
G#||--0-0-0-0-0-0-0-0--1-1---1---3--1-----|
C#||--0-0-0-0-0-0-0-0--------1---3--1-----|
      . . . . . . . .



Verse
Guitar 1:
D#||----------------------------------|
A#||-----6-----6-6-6-----6-----5-5-5--|
F#||-----7-----7-7-7-----7-----6-6-6--|
C#||--0----8----------5----7----------| x2
G#||--0----8----------5----7----------|
C#||--0----8----------5----7----------|


D#||----------------------------------------|
A#||----------------------------------------|
F#||--7-7--10---14-12-10--10-10-9---10-9-5--|
C#||--x-x--x----x--x--x---x--x--x---x--x-x--|
G#||--5-5--8----12-10-8---8--8--7---8--7-3--|
C#||----------------------------------------|


D#||---------------------------------------------------------------|
A#||---------------------------------------------------------------|
F#||--7-7--10---14-12-10--10-10-10-10-10-10-10/12-9-9-9-9-9-9-9-9--|
C#||--x-x--x----x--x--x---x--x--x--x--x--x--x-/x--x-x-x-x-x-x-x-x--|
G#||--5-5--8----12-10-8---8--8--8--8--8--8--8-/10-7-7-7-7-7-7-7-7--|
C#||---------------------------------------------------------------|


Guitar 2:
D#||---------------------------------|
A#||---------------------------------|
F#||---------------------------------|
C#||--0-0--8---8-8-8--5-5-7---7-7-7--| x3
G#||--0-0--8---8-8-8--5-5-7---7-7-7--|
C#||--0-0--8---8-8-8--5-5-7---7-7-7--|


D#||---------------------------------------------------|
A#||---------------------------------------------------|
F#||---------------------------------------------------|
C#||--0-0--8---8-8-8--5-5-5-5-5-5-5-5-7-7-7-7-7-7-7-7--| x3
G#||--0-0--8---8-8-8--5-5-5-5-5-5-5-5-7-7-7-7-7-7-7-7--|
C#||--0-0--8---8-8-8--5-5-5-5-5-5-5-5-7-7-7-7-7-7-7-7--|



Bridge
Guitar 1:
D#||---0---0---------0---0---------5-------------|---0---0---------0---0---------------|
A#||-----6---6---------6---6-----6---6---6-8-6---|-----6---6---------6---6-----6-8-6---|
F#||---------------------------5-------5---------|---------------------------5---------|
C#||---------------------------------------------|-------------------------------------| x4
G#||---------------------------------------------|-------------------------------------|
C#||---------------------------------------------|-------------------------------------|
                               . .     . .                                   . .


Guitar 2:
D#||---------------------------------------------------------|
A#||---------------------------------------------------------|
F#||---------------------------------------------------------|
C#||--00000000000000000000-10101010101010101010101010101010--|
G#||--00000000000000000000-10101010101010101010101010101010--|
C#||--00000000000000000000-10101010101010101010101010101010--|


D#||-----------------------------------------|
A#||-----------------------------------------|
F#||-----------------------------------------|
C#||--88888888888888888888-0000000000000000--|
G#||--88888888888888888888-0000000000000000--|
C#||--88888888888888888888-0000000000000000--|


D#||---------------------------------------------------------|
A#||---------------------------------------------------------|
F#||---------------------------------------------------------|
C#||--00000000000000000000-10101010101010101010101010101010--|
G#||--00000000000000000000-10101010101010101010101010101010--|
C#||--00000000000000000000-10101010101010101010101010101010--|


D#||----------------------------------------------|
A#||----------------------------------------------|
F#||----------------------------------------------|
C#||--88888888888888888888-00000000----------12\--|
G#||--88888888888888888888-00000000000000----12\--|
C#||--88888888888888888888-00000000000000----12\--|
                                   ......


Breakdown
Guitar 1/2:
D#||--------------------------------------------------------|
A#||--------------------------------------------------------|
F#||--------------------------------------------------------|
C#||--------------------------------------------------------|
G#||--0000--00--0000--00------0000--00--0000--00--0000--00--|
C#||--0000--00--0000--00------0000--00--0000--00--0000--00--|
      ....  ..  ....  ..      ....  ..  ....  ..  ....  ..



D#||----------------------------------------------------------------------------|
A#||----------------------------------------------------------------------------|
F#||----------------------------------------------------------------------------|
C#||--8888888888888888-7777777777777777-5555555555555555-333333333333-----------|
G#||--8888888888888888-7777777777777777-5555555555555555-333333333333--0-0-0-0--|
C#||--8888888888888888-7777777777777777-5555555555555555-333333333333--0-0-0-0--|
                                                                       . . . .


D#||----------------------------------------------------------------|
A#||----------------------------------------------------------------|
F#||----------------------------------------------------------------|
C#||--8888888888888888-7777777777777777-5555555555555555-333333333--|
G#||--8888888888888888-7777777777777777-5555555555555555-333333333--|
C#||--8888888888888888-7777777777777777-5555555555555555-333333333--|



Outro
Guitar 1/2:
D#||------------------------------------|
A#||------------------------------------|
F#||------------------------------------|
C#||------------------------------------| x4
G#||--0000--00--0000--00------0000--00--|
C#||--0000--00--0000--00------0000--00--|
      ....  ..  ....  ..      ....  ..





____________________________________________________________________________________________________

                                     T08.   BURNING HEARTS
____________________________________________________________________________________________________





Tuning: Drop C# (C# G# C# F# A# D#)



Intro
Guitar 1:
D#||--------------------------------------------------------------|
A#||--------------------------------------------------------------|
F#||--------6~----------------------------6~----------------------|
C#||--4-4-4-6~----------------------4-4-4-6~----------------------|
G#||--2-2-2-4~----------------------2-2-2-4~----------------------|
C#||--------------------------------------------------------------|
      . . .                         . . .

D#||--------------------------------------------------------------|
A#||--------------------------------------------------------------|
F#||--------2~----------------------------2~----------------------|
C#||--4-4-4-2~----------------------4-4-4-2~----------------------| x2
G#||--2-2-2-0~----------------------2-2-2-0~----------------------|
C#||--------------------------------------------------------------|
      . . .                         . . .

D#||---------|
A#||---------|
F#||---------|
C#||--4-4-4--|
G#||--2-2-2--|
C#||---------|
      . . .

Guitar 2:
D#||-----------0-----0-----0-----0-----------0-----0-----0-----0--|
A#||-------------0-----0-----0-----------------0-----0-----0------|
F#||---------------6-----6-----6-----------------6-----6-----6----|
C#||--------------------------------------------------------------| x4
G#||--------------------------------------------------------------|
C#||--------------------------------------------------------------|


Guitar 3:
D#||--------------------------------------------------------------|
A#||--------------------------------------------------------------|
F#||---13~-----8~-----9~-----11~-----16~-----13~-----16~-----9~---|
C#||---x-------x------x------x-------x-------x-------x-------x----|
G#||---11~-----6~-----7~-----9-~-----14~-----11~-----14~-----7~---|
C#||--------------------------------------------------------------|



Verse
Guitar 1/2:
D#||--------------------------------------------------|
A#||--------------------------------------------------|
F#||--6-6---6--6--------4-----------------------------|
C#||--6-6---6--6---4-4--4--4---77--777--777--777--7---|
G#||--4-4---4--4---4-4--2--4---77--777--777--777--7---|
C#||---------------4-4-----4---77--777--777--777--7---|


D#||--------------------------------------------------------|
A#||--------------------------------------------------------|
F#||--6-6---6--6--------4-----------------------------------|
C#||--6-6---6--6---4-4--4--4---77--7---------77--7----------| x2
G#||--4-4---4--4---4-4--2--4---77--7---------77--7----------|
C#||---------------4-4-----4---77--7-777777--77--7-777777---|

                                     ......        ......


Guitar 1:
D#||----------------------------------------------|
A#||--------7-------------------------------------|
F#||-----------9--9--8-9--8--5--------------------|
C#||----9-----------------------9~----6-7--6------|
G#||--7---------------------------------------9~--|
C#||----------------------------------------------|


D#||-----------------------------------------------------|
A#||--------7--------------------------------------------|
F#||-----------9--9--8-9--8--5---------------13--11--9---|
C#||----9-----------------------9~-----------x---x---x---|
G#||--7------------------------------1111111111--9---7---|
C#||-----------------------------------------------------|
                                     . . . .



Chorus
Guitar 1:
D#||---------------------------------------------------------------------------------------------|
A#||---------------------------------------------------------------------------------------------|
F#||--13-13-13-11-11-13-13-16-16-16-13-13-13-11-11-13-13-13-11-11-13-13-16-16-16-13-13-13-11-11--|
C#||--x--x--x--x--x--x--x--x--x--x--x--x--x--x--x--x--x--x--x--x--x--x--x--x--x--x--x--x--x--x---|
G#||--11-11-11-9--9--11-11-14-14-14-11-11-11-9--9--11-11-11-9--9--11-11-14-14-14-11-11-11-9--9---|
C#||---------------------------------------------------------------------------------------------|


D#||-----------------------------------------------------------------------------------|
A#||-----------------------------------------------------------------------------------|
F#||-14-14-14-13-13-13-11-11-13-13-13-11-11-11-9-9-11-11-11-9-9-9-8-8-9-9-9-9-9-9-9-9--|
C#||-x--x--x--x--x--x--x--x--x--x--x--x--x--x--x-x-x--x--x--x-x-x-x-x-x-x-x-x-x-x-x-x--|
G#||-12-12-12-11-11-11-9--9--11-11-11-9--9--9--7-7-9--9--9--7-7-7-6-6-7-7-7-7-7-7-7-7--|
C#||-----------------------------------------------------------------------------------|


D#||---------------------------------------------------------------------------------------------|
A#||---------------------------------------------------------------------------------------------|
F#||--13-13-13-11-11-13-13-16-16-16-13-13-13-11-11-13-13-13-11-11-13-13-16-16-16-13-13-13-11-11--|
C#||--x--x--x--x--x--x--x--x--x--x--x--x--x--x--x--x--x--x--x--x--x--x--x--x--x--x--x--x--x--x---|
G#||--11-11-11-9--9--11-11-14-14-14-11-11-11-9--9--11-11-11-9--9--11-11-14-14-14-11-11-11-9--9---|
C#||---------------------------------------------------------------------------------------------|


D#||----------------------------------------------------------------------|
A#||----------------------------------------------------------------------|
F#||-14-14-14-13-13-13-11-11-13-13-13-11-11-11-9-9-11-11-11-9-9-9-9-9-8~--|
C#||-x--x--x--x--x--x--x--x--x--x--x--x--x--x--x-x-x--x--x--x-x-x-x-x-x---|
G#||-12-12-12-11-11-11-9--9--11-11-11-9--9--9--7-7-9--9--9--7-7-7-7-7-6~--|
C#||----------------------------------------------------------------------|


Guitar 2:
D#||---------------------------------------|--------------------------------------|
A#||---------------------------------------|--------------------------------------|
F#||--66666666-------------------44444444--|--66666666----------------------------|
C#||--66666666-77777777-22222222-44444444--|--66666666-77777777-2222222222222222--|
G#||--44444444-77777777-22222222-22222222--|--44444444-77777777-2222222222222222--|
C#||-----------77777777-22222222-----------|-----------77777777-2222222222222222--|


D#||---------------------------------------|--------------------------------|
A#||---------------------------------------|--------------------------------|
F#||--66666666-------------------44444444--|--66666666----------------------|
C#||--66666666-77777777-22222222-44444444--|--66666666-44444444-77777777-7~-|
G#||--44444444-77777777-22222222-22222222--|--44444444-44444444-77777777-7~-|
C#||-----------77777777-22222222-----------|-----------44444444-77777777-7~-|



Verse
Guitar 1/2:
D#||--------------------------------------------------|
A#||--------------------------------------------------|
F#||--6-6---6--6--------4-----------------------------|
C#||--6-6---6--6---4-4--4--4---77--777--777--777--7---|
G#||--4-4---4--4---4-4--2--4---77--777--777--777--7---|
C#||---------------4-4-----4---77--777--777--777--7---|


D#||--------------------------------------------------------|
A#||--------------------------------------------------------|
F#||--6-6---6--6--------4-----------------------------------|
C#||--6-6---6--6---4-4--4--4---77--7---------77--7----------| x2
G#||--4-4---4--4---4-4--2--4---77--7---------77--7----------|
C#||---------------4-4-----4---77--7-777777--77--7-777777---|

                                     ......        ......


Guitar 1:
D#||----------------------------------------------|
A#||--------7-------------------------------------|
F#||-----------9--9--8-9--8--5--------------------|
C#||----9-----------------------9~----6-7--6------|
G#||--7---------------------------------------9~--|
C#||----------------------------------------------|


D#||-----------------------------------------------------|
A#||--------7--------------------------------------------|
F#||-----------9--9--8-9--8--5---------------13--11--9---|
C#||----9-----------------------9~-----------x---x---x---|
G#||--7------------------------------1111111111--9---7---|
C#||-----------------------------------------------------|
                                     . . . .



Chorus
Guitar 1:
D#||---------------------------------------------------------------------------------------------|
A#||---------------------------------------------------------------------------------------------|
F#||--13-13-13-11-11-13-13-16-16-16-13-13-13-11-11-13-13-13-11-11-13-13-16-16-16-13-13-13-11-11--|
C#||--x--x--x--x--x--x--x--x--x--x--x--x--x--x--x--x--x--x--x--x--x--x--x--x--x--x--x--x--x--x---|
G#||--11-11-11-9--9--11-11-14-14-14-11-11-11-9--9--11-11-11-9--9--11-11-14-14-14-11-11-11-9--9---|
C#||---------------------------------------------------------------------------------------------|


D#||-----------------------------------------------------------------------------------|
A#||-----------------------------------------------------------------------------------|
F#||-14-14-14-13-13-13-11-11-13-13-13-11-11-11-9-9-11-11-11-9-9-9-8-8-9-9-9-9-9-9-9-9--|
C#||-x--x--x--x--x--x--x--x--x--x--x--x--x--x--x-x-x--x--x--x-x-x-x-x-x-x-x-x-x-x-x-x--|
G#||-12-12-12-11-11-11-9--9--11-11-11-9--9--9--7-7-9--9--9--7-7-7-6-6-7-7-7-7-7-7-7-7--|
C#||-----------------------------------------------------------------------------------|


D#||---------------------------------------------------------------------------------------------|
A#||---------------------------------------------------------------------------------------------|
F#||--13-13-13-11-11-13-13-16-16-16-13-13-13-11-11-13-13-13-11-11-13-13-16-16-16-13-13-13-11-11--|
C#||--x--x--x--x--x--x--x--x--x--x--x--x--x--x--x--x--x--x--x--x--x--x--x--x--x--x--x--x--x--x---|
G#||--11-11-11-9--9--11-11-14-14-14-11-11-11-9--9--11-11-11-9--9--11-11-14-14-14-11-11-11-9--9---|
C#||---------------------------------------------------------------------------------------------|


D#||----------------------------------------------------------------------|
A#||----------------------------------------------------------------------|
F#||-14-14-14-13-13-13-11-11-13-13-13-11-11-11-9-9-11-11-11-9-9-9-9-9-8~--|
C#||-x--x--x--x--x--x--x--x--x--x--x--x--x--x--x-x-x--x--x--x-x-x-x-x-x---|
G#||-12-12-12-11-11-11-9--9--11-11-11-9--9--9--7-7-9--9--9--7-7-7-7-7-6~--|
C#||----------------------------------------------------------------------|


Guitar 2:
D#||---------------------------------------|--------------------------------------|
A#||---------------------------------------|--------------------------------------|
F#||--66666666-------------------44444444--|--66666666----------------------------|
C#||--66666666-77777777-22222222-44444444--|--66666666-77777777-2222222222222222--|
G#||--44444444-77777777-22222222-22222222--|--44444444-77777777-2222222222222222--|
C#||-----------77777777-22222222-----------|-----------77777777-2222222222222222--|


D#||---------------------------------------|--------------------------------|
A#||---------------------------------------|--------------------------------|
F#||--66666666-------------------44444444--|--66666666----------------------|
C#||--66666666-77777777-22222222-44444444--|--66666666-44444444-77777777-7~-|
G#||--44444444-77777777-22222222-22222222--|--44444444-44444444-77777777-7~-|
C#||-----------77777777-22222222-----------|-----------44444444-77777777-7~-|



Interlude
Guitar 1/2:
D#||---------------------------|
A#||--5~-----------------------|
F#||--6~-----------------------|
C#||--x------2~-----4~-----7~--|
G#||--4~-----2~-----4~-----7~--|
C#||---------2~-----4~-----7~--|


D#||-------0------------0------------0---------------0~--|
A#||----------0~-----------0~-----------0~--------0------|
F#||-----------------------------------------------------|
C#||--6~-------------------------------------------------|
G#||--4~-----------2~-----------4~-----------7~----------|
C#||---------------2~-----------4~-----------7~----------|


D#||--------------------------------------------------------------------------|
A#||--------------------------------------------------------------------------|
F#||--6666666666666666--------------------------------------------------------|
C#||--6666666666666666-2222222222222222-4444444444444444-777777777777--4-4-4--|
G#||--4444444444444444-2222222222222222-4444444444444444-777777777777--2-2-2--|
C#||-------------------2222222222222222-4444444444444444-777777777777---------|
      ................ ................ ...............  ........      . . .


Verse
Guitar 1/2:
D#||--------------------------------------------------|
A#||--------------------------------------------------|
F#||--6-6---6--6--------4-----------------------------|
C#||--6-6---6--6---4-4--4--4---77--777--777--777--7---|
G#||--4-4---4--4---4-4--2--4---77--777--777--777--7---|
C#||---------------4-4-----4---77--777--777--777--7---|


D#||-------------------------------------------|
A#||-------------------------------------------|
F#||--6-6---6--6--------4----------------------|
C#||--6-6---6--6---4-4--4--4---7~--------12\---|
G#||--4-4---4--4---4-4--2--4---7~--------12\---|
C#||---------------4-4-----4---7~--------12\---|



Guitar 1:
D#||-------------------------------------------|
A#||--------7----------------------------------|
F#||-----------9--9--8-9--8--5~----5---8---9~--|
C#||----9--------------------------------------|
G#||--7----------------------------------------|
C#||-------------------------------------------|



Solo
Guitar 1:
D#||--9-----9------9------9----------9h12p9----9h12p9----9h12p9----9h12p9--|
A#||--12b14-12b14--12h14--12h14---12--------12--------12--------12---------|
F#||-----------------------------------------------------------------------|
C#||-----------------------------------------------------------------------|
G#||-----------------------------------------------------------------------|
C#||-----------------------------------------------------------------------|


D#||-----9h12p9----9h12p9----9h12p9----9h12p9-----12b15---12---9---------|
A#||--12--------12--------12--------12--------12------------------12b15--|
F#||---------------------------------------------------------------------|
C#||---------------------------------------------------------------------|
G#||---------------------------------------------------------------------|
C#||---------------------------------------------------------------------|


D#||-------------9--------------9--------------9--------------|
A#||---------------12-9-----------12-9-----------12-9---------|
F#||--11-11b13-----------11b13----------11b13----------11b13--|
C#||----------------------------------------------------------|
G#||----------------------------------------------------------|
C#||----------------------------------------------------------|


D#||--9-------------------------------------------------|
A#||----12-9--------------------------------------------|
F#||----------11b13--11---9-11--9---8-9--8--------------|
C#||-----------------------------------------9/11~--\---|
G#||----------------------------------------------------|
C#||----------------------------------------------------|


Guitar 2:
D#||--------------------------------------------------|
A#||--------------------------------------------------|
F#||--6-6---6--6--------4-----------------------------|
C#||--6-6---6--6---4-4--4--4---77--777--777--777--7---|
G#||--4-4---4--4---4-4--2--4---77--777--777--777--7---|
C#||---------------4-4-----4---77--777--777--777--7---|


D#||--------------------------------------------------------|
A#||--------------------------------------------------------|
F#||--6-6---6--6--------4-----------------------------------|
C#||--6-6---6--6---4-4--4--4---77--7---------77--7----------|
G#||--4-4---4--4---4-4--2--4---77--7---------77--7----------|
C#||---------------4-4-----4---77--7-777777--77--7-777777---|

                                     ......        ......


Chorus / Outro
Guitar 1:
D#||---------------------------------------------------------------------------------------------|
A#||---------------------------------------------------------------------------------------------|
F#||--13-13-13-11-11-13-13-16-16-16-13-13-13-11-11-13-13-13-11-11-13-13-16-16-16-13-13-13-11-11--|
C#||--x--x--x--x--x--x--x--x--x--x--x--x--x--x--x--x--x--x--x--x--x--x--x--x--x--x--x--x--x--x---|
G#||--11-11-11-9--9--11-11-14-14-14-11-11-11-9--9--11-11-11-9--9--11-11-14-14-14-11-11-11-9--9---|
C#||---------------------------------------------------------------------------------------------|


D#||-----------------------------------------------------------------------------------|
A#||-----------------------------------------------------------------------------------|
F#||-14-14-14-13-13-13-11-11-13-13-13-11-11-11-9-9-11-11-11-9-9-9-8-8-9-9-9-9-9-9-9-9--|
C#||-x--x--x--x--x--x--x--x--x--x--x--x--x--x--x-x-x--x--x--x-x-x-x-x-x-x-x-x-x-x-x-x--|
G#||-12-12-12-11-11-11-9--9--11-11-11-9--9--9--7-7-9--9--9--7-7-7-6-6-7-7-7-7-7-7-7-7--|
C#||-----------------------------------------------------------------------------------|


D#||---------------------------------------------------------------------------------------------|
A#||---------------------------------------------------------------------------------------------|
F#||--13-13-13-11-11-13-13-16-16-16-13-13-13-11-11-13-13-13-11-11-13-13-16-16-16-13-13-13-11-11--|
C#||--x--x--x--x--x--x--x--x--x--x--x--x--x--x--x--x--x--x--x--x--x--x--x--x--x--x--x--x--x--x---|
G#||--11-11-11-9--9--11-11-14-14-14-11-11-11-9--9--11-11-11-9--9--11-11-14-14-14-11-11-11-9--9---|
C#||---------------------------------------------------------------------------------------------|


D#||----------------------------------------------------------------------|
A#||----------------------------------------------------------------------|
F#||-14-14-14-13-13-13-11-11-13-13-13-11-11-11-9-9-11-11-11-9-9-9-9-9-8~--|
C#||-x--x--x--x--x--x--x--x--x--x--x--x--x--x--x-x-x--x--x--x-x-x-x-x-x---|
G#||-12-12-12-11-11-11-9--9--11-11-11-9--9--9--7-7-9--9--9--7-7-7-7-7-6~--|
C#||----------------------------------------------------------------------|


Guitar 2:
D#||---------------------------------------|--------------------------------------|
A#||---------------------------------------|--------------------------------------|
F#||--66666666-------------------44444444--|--66666666----------------------------|
C#||--66666666-77777777-22222222-44444444--|--66666666-77777777-2222222222222222--|
G#||--44444444-77777777-22222222-22222222--|--44444444-77777777-2222222222222222--|
C#||-----------77777777-22222222-----------|-----------77777777-2222222222222222--|


D#||---------------------------------------|--------------------------------|
A#||---------------------------------------|--------------------------------|
F#||--66666666-------------------44444444--|--66666666----------------------|
C#||--66666666-77777777-22222222-44444444--|--66666666-44444444-77777777-7~-|
G#||--44444444-77777777-22222222-22222222--|--44444444-44444444-77777777-7~-|
C#||-----------77777777-22222222-----------|-----------44444444-77777777-7~-|


Guitar 1/2:
D#||------------|
A#||------------|
F#||---4~---\---|
C#||---4~---\---|
G#||---2~---\---|
C#||------------|





____________________________________________________________________________________________________

                                    T09.   DARLING HARBOUR
____________________________________________________________________________________________________





Tuning: Half-Step Down (D# G# C# F# A# D#)



Intro
Guitar 1:
D#||--------------------------------------------------------------------------|
A#||--------------------------------------------------------------------------|
F#||--------------------------------------------------------------------------|
C#||--7777777777777777-0000000000000000-------------44------------------------|
G#||--5555555555555555-2222222222222222-22222222222-55-22-4-5555555555555555--|
D#||------------------------------------33333333333----33-5-7777777777777777--|
      ................ ................ ........... .. .. . ................


Guitar 1/2:
D#||---------------------------------------------------------------------|
A#||---------------------------------------------------------------------|
F#||---------------------------------------------------------------------|
C#||--7777777777777777-0000000000000000-------------44-------------------|
G#||--5555555555555555-2222222222222222-22222222222-55-22-4-55555555-5~--|
D#||------------------------------------33333333333----33-5-77777777-7~--|
      ................ ................ ........... .. .. . ........



Chorus
Guitar 1:
D#||--------------------------------------------------------------------|
A#||--------------------------------------------------------------------|
F#||--7-7---7-7-7-7---9-9---9-9-9-9-------------------------------------|
C#||--7-7---7-7-7-7---9-9---9-9-9-9---9-9---9-9---9-9---9-9-----7-7-7---| x2
G#||--5-5---5-5-5-5---7-7---7-7-7-7---9-9---9-9---9-9---9-9-----7-7-7---|
D#||----------------------------------7-7---7-7---7-7---7-7--55-5-5-5---|
                                                             ..

Guitar 2:
D#||--------------------------------------------------------------------|
A#||--5-5---5-5-5-5---7-7---7-7-7-7-------------------------------------|
F#||--7-7---7-7-7-7---7-7---7-7-7-7---7-7---7-7---7-7---7-7-----6-6-6---|
C#||----------------------------------9-9---9-9---9-9---9-9--77-7-7-7---| x2
G#||--------------------------------------------------------------------|
D#||--------------------------------------------------------------------|
                                                             ..



Verse
Guitar 1/2:
D#||----------------------------------------------------------------------|
A#||----------------------------------------------------------------------|
F#||----------------------------------------------------------------------|
C#||--7-7-7-7-7-7-7-7--0-0-0-0-0-0-0-0-------------------0-0-0-0-0-0-0-0--|
G#||--5-5-5-5-5-5-5-5--2-2-2-2-2-2-2-2--2-2-2-2-2-2-2-2--2-2-2-2-2-2-2-2--|
D#||------------------------------------3-3-3-3-3-3-3-3-------------------|
      . .   . . .      . .   . . .      . .   . . .      . .   . . .


D#||----------------------------------------------------------------------|
A#||----------------------------------------------------------------------|
F#||----------------------------------------------------------------------|
C#||--7-7-7-7-7-7-7-7--0-0-0-0-0-0-0-0-------------------0-0-0-0-0-0-0-0--| x2
G#||--5-5-5-5-5-5-5-5--2-2-2-2-2-2-2-2--2-2-2-2-2-2-2-2--2-2-2-2-2-2-2-2--|
D#||------------------------------------3-3-3-3-3-3-3-3-------------------|
      . .   . . .      . .   . . .      . .   . . .      . .   . .




Chorus
Guitar 1:
D#||--------------------------------------------------------------------|
A#||--------------------------------------------------------------------|
F#||--7-7---7-7-7-7---9-9---9-9-9-9-------------------------------------|
C#||--7-7---7-7-7-7---9-9---9-9-9-9---9-9---9-9---9-9---9-9-----7-7-7---| x2
G#||--5-5---5-5-5-5---7-7---7-7-7-7---9-9---9-9---9-9---9-9-----7-7-7---|
D#||----------------------------------7-7---7-7---7-7---7-7--55-5-5-5---|
                                                             ..

Guitar 2:
D#||--------------------------------------------------------------------|
A#||--5-5---5-5-5-5---7-7---7-7-7-7-------------------------------------|
F#||--7-7---7-7-7-7---7-7---7-7-7-7---7-7---7-7---7-7---7-7-----6-6-6---|
C#||----------------------------------9-9---9-9---9-9---9-9--77-7-7-7---| x2
G#||--------------------------------------------------------------------|
D#||--------------------------------------------------------------------|
                                                             ..


Bridge
Guitar 1/2:
D#||----------------------------------------|----------------------------------------|
A#||----------------------------------------|----------------------------------------|
F#||---------------2222-444444444444-2222---|---------------2222-44444444-55555555---|
C#||--555555555555-2222-444444444444-2222---|--555555555555-2222-44444444-55555555---|
G#||--555555555555-0000-222222222222-0000---|--555555555555-0000-22222222-33333333---|
D#||--333333333333--------------------------|--333333333333--------------------------|


D#||----------------------------------------|----------------------------------------------|
A#||----------------------------------------|----------------------------------------------|
F#||---------------2222-444444444444-2222---|---------------2222-44444444---2-2---2-2-2-2--|
C#||--555555555555-2222-444444444444-2222---|--555555555555-2222-44444444---2-2---2-2-2-2--|
G#||--555555555555-0000-222222222222-0000---|--555555555555-0000-22222222---0-0---0-0-0-0--|
D#||--333333333333--------------------------|--333333333333--------------------------------|



Interlude
Guitar 1:
D#||--------------------------------------------------------------------------|
A#||--------------------------------------------------------------------------|
F#||--------------------------------------------------------------------------|
C#||--7777777777777777-0000000000000000-------------44------------------------| 
G#||--5555555555555555-2222222222222222-22222222222-55-22-4-5555555555555555--|
D#||------------------------------------33333333333----33-5-7777777777777777--|
      ................ ................ ........... .. .. . ................


D#||---------------------------------------------------------------------------|
A#||---------------------------------------------------------------------------|
F#||---------------------------------------------------------------------------|
C#||--7777777777777777-0000000000000000-------------44-------------------------| 
G#||--5555555555555555-2222222222222222-22222222222-55-22-4-555555555555555-5--|
D#||------------------------------------33333333333----33-5-777777777777777-7--|
      ................ ................ ........... .. .. . ............


Guitar 2:
D#||-------------------------------------------------------------------|
A#||--3---3---3---3---3---3---3---3---0---0---0---0---0---0---0---0----|
F#||----2---2---2---2---2---2---2---2---2---2---2---2---2---2---2---2--|
C#||-------------------------------------------------------------------|
G#||-------------------------------------------------------------------|
D#||-------------------------------------------------------------------|
      . . . . . . . . . . . . . . . . . . . . . . . . . . . . . . . .


D#||-------------------------------------------------------|
A#||----------------------------------3---3---3---3----3---|
F#||----2---2---2---2---2---2---2---2---2---2---2---2--2---|
C#||--0---0---0---0---0---0---0---0------------------------|
G#||-------------------------------------------------------|
D#||-------------------------------------------------------|
      . . . . . . . . . . . . . . . . . . . . .



Chorus
Guitar 1:
D#||--------------------------------------------------------------------|
A#||--------------------------------------------------------------------|
F#||--7-7---7-7-7-7---9-9---9-9-9-9-------------------------------------|
C#||--7-7---7-7-7-7---9-9---9-9-9-9---9-9---9-9---9-9---9-9-----7-7-7---| x2
G#||--5-5---5-5-5-5---7-7---7-7-7-7---9-9---9-9---9-9---9-9-----7-7-7---|
D#||----------------------------------7-7---7-7---7-7---7-7--55-5-5-5---|
                                                             ..

Guitar 2:
D#||--------------------------------------------------------------------|
A#||--5-5---5-5-5-5---7-7---7-7-7-7-------------------------------------|
F#||--7-7---7-7-7-7---7-7---7-7-7-7---7-7---7-7---7-7---7-7-----6-6-6---|
C#||----------------------------------9-9---9-9---9-9---9-9--77-7-7-7---| x2
G#||--------------------------------------------------------------------|
D#||--------------------------------------------------------------------|
                                                             ..



Outro
Guitar 1:
D#||---------------------------------------|
A#||---------------------------------------|
F#||--77777777-99999999--------------------|
C#||--77777777-99999999-999999999999-7777--|
G#||--55555555-77777777-999999999999-7777--|
D#||--------------------777777777777-5555--|


D#||-------------------------------------------------------|
A#||-------------------------------------------------------|
F#||--77777777-99999999------------------------------------|
C#||--77777777-99999999---9-9---9-9---9-9---9-9-----7-7-7--|
G#||--55555555-77777777---9-9---9-9---9-9---9-9-----7-7-7--|
D#||----------------------7-7---7-7---7-7---7-7--55-5-5-5--|
                                                 ..

Guitar 2:
D#||---------------------------------------|
A#||--55555555-77777777--------------------|
F#||--77777777-77777777-777777777777-6666--|
C#||--------------------999999999999-7777--|
G#||---------------------------------------|
D#||---------------------------------------|


D#||-------------------------------------------------------|
A#||--55555555-77777777------------------------------------|
F#||--77777777-77777777---7-7---7-7---7-7---7-7-----7-7-7--|
C#||----------------------9-9---9-9---9-9---9-9--77-7-7-7--|
G#||-------------------------------------------------------|
D#||-------------------------------------------------------|
                                                 ..





____________________________________________________________________________________________________

                                      T10.   LIVE TO KILL
____________________________________________________________________________________________________





Tuning: Half-Step Down (D# G# C# F# A# D#)



Intro
Guitar 1:
D#||-----------------'12~---|
A#||---'5~------------------|
F#||------------------------|
C#||------------------------|
G#||------------------------|
D#||------------------------|


Guitar 1:
D#||-----------------------------------------------|----------------------------------------|
A#||-----------------------------------------------|----------------------------------------|
F#||---/7------------------------------------------|---/7-----------------------------------|
C#||--------9-------------10---10-10-10-10-10-10---|--------9-------------10--------7---9---| x2
G#||----------10-9-7-9-10--------------------------|----------10-9-7-9-10------10-----------|
D#||-----------------------------------------------|----------------------------------------|


Guitar 2:
D#||--------------------------------------------------|
A#||--------------------------------------------------|
F#||-------------5--555555-------------5--------------|
C#||--2--222222--5--555555--2--222222--5---5---7---9--|
G#||--2--222222--3--333333--2--222222--3---5---7---9--| x2
D#||--0--000000-------------0--000000------3---5---7--|



Verse
Guitar 1:
D#||------------0---------------0---------------0---------------0-------|
A#||------3-------3-------3-------3-------1-------1-------1-------3-----|
F#||--------0-------0-------0-------0-------0-------0-------0-------5---|
C#||--2-------2-------2-------2---------------0---------------0---------|
G#||----------------------------------3---------------3-----------------|
D#||--------------------------------------------------------------------|


D#||--------3---3/5\3--------3---3/5\3----------------------------------------|
A#||------3---3------------3---3------------3--/8-8-7-7-8-8-10-10-8-8-7-8-10--|
F#||--0----------------0----------------0-------------------------------------|
C#||--------------------------------------------------------------------------| x2
G#||--------------------------------------------------------------------------|
D#||--------------------------------------------------------------------------|


Guitar 2:
D#||--------------------------------------|
A#||--------------------------------------|
F#||--------------------------------------|
C#||--9~---------5~------------------7~---| x2
G#||--7~---------3~--------5~--------5~---|
D#||-----------------------3~-------------|



Pre-Chorus
Guitar 1:
D#||-------------------------------------|
A#||-------------------------------------|
F#||---9~--------7~--------5~--------5---|
C#||---x---------x---------x---------x---|
G#||---7~--------5~--------3~--------3---|
D#||-------------------------------------|


Guitar 2:
D#||-------------------------------------|
A#||-------------------------------------|
F#||---9~--------11~-------12~-------12--|
C#||---x---------x---------x---------x---|
G#||---7~--------9~--------10~-------10--|
D#||-------------------------------------|



Chorus
Guitar 1:
D#||-----------------------------------------------|----------------------------------------|
A#||-----------------------------------------------|----------------------------------------|
F#||---/7------------------------------------------|---/7-----------------------------------|
C#||--------9-------------10---10-10-10-10-10-10---|--------9-------------10--------7---9---| x2
G#||----------10-9-7-9-10--------------------------|----------10-9-7-9-10------10-----------|
D#||-----------------------------------------------|----------------------------------------|


Guitar 2:
D#||--------------------------------------------------|
A#||--------------------------------------------------|
F#||-------------5--555555-------------5--------------|
C#||--2--222222--5--555555--2--222222--5---5---7---9--|
G#||--2--222222--3--333333--2--222222--3---5---7---9--| x2
D#||--0--000000-------------0--000000------3---5---7--|



Alternate Verse
Guitar 1:
D#||-------------------------------------------------------|
A#||-------------------------------------------------------|
F#||---9~-----/16-----14---12--5~-----/16----14---12--12~--|
C#||---x------/x------x----x---x------/x-----x----x---x----|
G#||---7~-----/14-----12---10--3~-----/14----12---10--10~--|
D#||-------------------------------------------------------|


D#||---------------------------------------------|
A#||---------------------------------------------|
F#||---/16-----14---12--11~-----/14----12---11---|
C#||---/x------x----x---x-------/x-----x----x----| x2
G#||---/14-----12---10--9~------/12----10---9----|
D#||---------------------------------------------|


Guitar 3:
D#||---------------------------------------------------------------------|
A#||---------------------------------------------------------------------|
F#||--9--9---------------------------------------------------------------|
C#||--9--9---------------------------------------------------------------|
G#||--7--7--7-7-7-7-7-7-7-7-7-7-7-7-7-7-3-3-3-3-3-3-3-3-3-3-3-3-3-3-3-3--|
D#||---------------------------------------------------------------------|
            . . . . . . . . . . . . . . . . . . . . . . . . . . . . . .


D#||-------------------------------------------------------------------|
A#||-------------------------------------------------------------------|
F#||-------------------------------------------------------------------|
C#||-------------------------------------------------------------------|
G#||----------------------------------5-5-5-5-5-5-5-5-6-6-6-6-6-6-6-6--|
D#||--3-3-3-3-3-3-3-3-3-3-3-3-3-3-3-3----------------------------------|
      . . . . . . . . . . . . . . . . . . . . . . . . . . . . . . . .


Guitar 2:
D#||--------------------------------------------------|
A#||--------------------------------------------------|
F#||---9~-----/7-------------------/7-----------------|
C#||---x-------------10---9--------------10---9--9~---|
G#||---7~---------------------------------------------|
D#||-------------------------8~-----------------------|


D#||-------------------------------------|
A#||-------------------------------------|
F#||---/7--------------------------------|
C#||----------10---9--7~----/10---9--7---|
G#||-------------------------------------|
D#||-------------------------------------|


Guitar 3:
D#||-------------------------------------------------------------------|
A#||-------------------------------------------------------------------|
F#||-------------------------------------------------------------------|
C#||-------------------------------------------------------------------|
G#||--7-7-7-7-7-7-7-7-7-7-7-7-7-7-7-7-3-3-3-3-3-3-3-3-3-3-3-3-3-3-3-3--|
D#||-------------------------------------------------------------------|
      . . . . . . . . . . . . . . . . . . . . . . . . . . . . . . . .


D#||-------------------------------------------------------------------|
A#||-------------------------------------------------------------------|
F#||-------------------------------------------------------------------|
C#||-------------------------------------------------------------------|
G#||----------------------------------5-5-5-5-5-5-5-5-6-6-6-6-6-6-6-6--|
D#||--3-3-3-3-3-3-3-3-3-3-3-3-3-3-3-3----------------------------------|
      . . . . . . . . . . . . . . . . . . . . . . . . . . . . . . . .



Pre-Chorus
Guitar 1:
D#||-------------------------------------|
A#||-------------------------------------|
F#||---9~--------7~--------5~--------5---|
C#||---x---------x---------x---------x---|
G#||---7~--------5~--------3~--------3---|
D#||-------------------------------------|


Guitar 2:
D#||-------------------------------------|
A#||-------------------------------------|
F#||---9~--------11~-------12~-------12--|
C#||---x---------x---------x---------x---|
G#||---7~--------9~--------10~-------10--|
D#||-------------------------------------|



Chorus
Guitar 1:
D#||-----------------------------------------------|----------------------------------------|
A#||-----------------------------------------------|----------------------------------------|
F#||---/7------------------------------------------|---/7-----------------------------------|
C#||--------9-------------10---10-10-10-10-10-10---|--------9-------------10--------7---9---| x2
G#||----------10-9-7-9-10--------------------------|----------10-9-7-9-10------10-----------|
D#||-----------------------------------------------|----------------------------------------|


Guitar 2:
D#||--------------------------------------------------|
A#||--------------------------------------------------|
F#||-------------5--555555-------------5--------------|
C#||--2--222222--5--555555--2--222222--5---5---7---9--|
G#||--2--222222--3--333333--2--222222--3---5---7---9--| x2
D#||--0--000000-------------0--000000------3---5---7--|



Bridge
Guitar 1:
D#||----------------------------------------------------------------------|
A#||----------------------------------------------------------------------|
F#||-9999-11111111-12121212-14141414-11111111-12121212-14141414-16161616--|
C#||-xxxx-x-x-x-x--x-x-x-x--x-x-x-x--x-x-x-x--x-x-x-x--x-x-x-x--x-x-x-x---|
G#||-7777-9-9-9-9--10101010-12121212-9-9-9-9--10101010-12121212-14141414--|
D#||----------------------------------------------------------------------|


D#||--------------------------------------------------------------------------|
A#||--------------------------------------------------------------------------|
F#||-16161616-14141414-12121212-11111111-16161616-14141414-12121212-14141414--|
C#||-x-x-x-x--x-x-x-x--x-x-x-x--x-x-x-x--x-x-x-x--x-x-x-x--x-x-x-x--x-x-x-x---|
G#||-14141414-12121212-10101010-9-9-9-9--14141414-12121212-10101010-12121212--|
D#||--------------------------------------------------------------------------|


D#||----------------------------------------------------------------------|
A#||----------------------------------------------------------------------|
F#||-9999-11111111-12121212-14141414-11111111-12121212-14141414-19191919--|
C#||-xxxx-x-x-x-x--x-x-x-x--x-x-x-x--x-x-x-x--x-x-x-x--x-x-x-x--x-x-x-x---|
G#||-7777-9-9-9-9--10101010-12121212-9-9-9-9--10101010-12121212-17171717--|
D#||----------------------------------------------------------------------|


D#||--------------------------------------------------------------------------|
A#||--------------------------------------------------------------------------|
F#||-16161616-14141414-12121212-11111111-16161616-14141414-12121212-14141414--|
C#||-x-x-x-x--x-x-x-x--x-x-x-x--x-x-x-x--x-x-x-x--x-x-x-x--x-x-x-x--x-x-x-x---|
G#||-14141414-12121212-10101010-9-9-9-9--14141414-12121212-10101010-12121212--|
D#||--------------------------------------------------------------------------|


Guitar 2:
D#||-----------------------------------------------------------------------|
A#||-----------------------------------------------------------------------|
F#||--5555555555555555-7777777777777777------------------------------------|
C#||--5555555555555555-7777777777777777-2222222222222222-5555555555555555--| x2
G#||--3333333333333333-5555555555555555-2222222222222222-5555555555555555--|
D#||------------------------------------0000000000000000-3333333333333333--|



Pre-Chorus
Guitar 1:
D#||-------------------------------------|
A#||-------------------------------------|
F#||---9~--------7~--------5~--------5---|
C#||---x---------x---------x---------x---|
G#||---7~--------5~--------3~--------3---|
D#||-------------------------------------|


Guitar 2:
D#||-------------------------------------|
A#||-------------------------------------|
F#||---9~--------11~-------12~-------12--|
C#||---x---------x---------x---------x---|
G#||---7~--------9~--------10~-------10--|
D#||-------------------------------------|



Chorus
Guitar 1:
D#||-----------------------------------------------|----------------------------------------|
A#||-----------------------------------------------|----------------------------------------|
F#||---/7------------------------------------------|---/7-----------------------------------|
C#||--------9-------------10---10-10-10-10-10-10---|--------9-------------10--------7---9---| x2
G#||----------10-9-7-9-10--------------------------|----------10-9-7-9-10------10-----------|
D#||-----------------------------------------------|----------------------------------------|


Guitar 2:
D#||--------------------------------------------------|
A#||--------------------------------------------------|
F#||-------------5--555555-------------5--------------|
C#||--2--222222--5--555555--2--222222--5---5---7---9--|
G#||--2--222222--3--333333--2--222222--3---5---7---9--| x2
D#||--0--000000-------------0--000000------3---5---7--|



Guitar 1:
D#||------------------------------------------|----------------------------------------|
A#||------------------------------------------|----------------------------------------|
F#||---/7-------------------------------------|---/7-----------------------------------|
C#||--------9-------------10---10-10----xxx---|--------9-------------10--------7---9---| x2
G#||----------10-9-7-9-10---------------xxx---|----------10-9-7-9-10------10-----------|
D#||------------------------------------xxx---|----------------------------------------|


Guitar 2:
D#||--------------------------------------------------|
A#||--------------------------------------------------|
F#||-------------5--55-----------------5--------------|
C#||--2--22-xxx--5--55-xxx--2--22-xxx--5---5---7---9--|
G#||--2--22-xxx--3--33-xxx--2--22-xxx--3---5---7---9--| x2
D#||--0--00-xxx--------xxx--0--00-xxx------3---5---7--|



Outro
Guitar 1/2:
D#||--------------------------------------------------|
A#||--------------------------------------------------|
F#||-------------5---5-----------------5--------------|
C#||--2---2------5---5------2---2-xxx--5---5---7---9--|
G#||--2---2------3---3------2---2-xxx--3---5---7---9--| x2
D#||--0---0-----------------0---0-xxx------3---5---7--|





____________________________________________________________________________________________________

                                       T11.   REPLACE YOU
____________________________________________________________________________________________________





Tuning: Half-Step Down (D# G# C# F# A# D#)



Intro
Guitar 1:
D#||-----4--6---------------4--6-------------|
A#||----4------7~----------4------7~----4~---|
F#||---4------------------4------------------|
C#||--6------------------6-------------------|
G#||-----------------------------------------|
D#||-----------------------------------------|


D#||---------------------------------------------------|
A#||-----9--7---------------9--------------------------|
F#||----9------9~----------9---9--9/11--9--8--8h9p8----|
C#||---9------------------9-------------------------9--|
G#||--7------------------7-----------------------------|
D#||---------------------------------------------------|


D#||-----4--6---------------4--6--6h7--6--4--------|
A#||----4------7~----------4-----------------7--7--|
F#||---4------------------4------------------------|
C#||--6------------------6-------------------------|
G#||-----------------------------------------------|
D#||-----------------------------------------------|


D#||---------------------------------------------------|
A#||-----9--7---------------9--------------------------|
F#||----9------9~----------9---9--9/11--9--8--8h9p8----|
C#||---9------------------9-------------------------9--|
G#||--7------------------7-----------------------------|
D#||---------------------------------------------------|


Guitar 2:
D#||-----------------------------------------|
A#||-----------------------------------------|
F#||-----------------------------------------|
C#||------------------------------------9~---|
G#||--666----------------666------------6~---|
D#||--444----------------444-----------------|


D#||----------------------------------------------|
A#||----------------------------------------------|
F#||----------------------------------------------|
C#||--999----------------999----------------------|
G#||--777----------------777------99---9---3------|
D#||------------------------------77---6---2--22--|
                                              ..

D#||------------------------------------------------------------------------|
A#||------------------------------------------------------------------------|
F#||-----------------------------------999999999999999999999999-------------|
C#||--6666666666666666666666666666-999-999999999999999999999999-------------|
G#||--6666666666666666666666666666-666-777777777777777777777777-99---9---4--|
D#||--4444444444444444444444444444------------------------------77---6---2--|



Verse
Guitar 1/2:
D#||---------------------------------------------------------------------|
A#||---------------------------------------------------------------------|
F#||---------------------------------------------------------------------|
C#||-----------------------------------4-4-4-4-4-4-4-4-------------------|
G#||--6-6-6-6-6-6-6-6---2-2-2-2-2-2-22-2-2-2-2-2-2-2-2---4-4-4-4-4-4-44--|
D#||--4-4-4-4-4-4-4-4---0-0-0-0-0-0-00-------------------2-2-2-2-2-2-22--|
      . . . . . . . .   . . . . . . .. . . . . . . . .   . . . . . . ..


D#||--------------------------------------------------------------------|
A#||--------------------------------------------------------------------|
F#||--------------------------------------------------------------------|
C#||-----------------------------------4-4-4-4-4-4-4-4------------------|
G#||--6-6-6-6-6-6-6-6---2-2-2-2-2-2-22-2-2-2-2-2-2-2-2---4-4-4-4---4----|
D#||--4-4-4-4-4-4-4-4---0-0-0-0-0-0-00-------------------2-2-2-2-0-2-0--|
      . . . . . . . .   . . . . . . .. . . . . . . . .   . . . . . . .



Guitar 1:
D#||--------------------|-------------------|--------------------|-----------------|
A#||--------------------|-------------------|--------------------|-----------------|
F#||--------8--\--------|---4---4/6---------|--------8--\--------|---/8---6--------|
C#||---/6----------2~---|--------------4~---|---/6----------2~---|------------8~---|
G#||--------------------|-------------------|--------------------|-----------------|
D#||--------------------|-------------------|--------------------|-----------------|



Guitar 2:
D#||---------------------------------------------------------------------|
A#||---------------------------------------------------------------------|
F#||---------------------------------------------------------------------|
C#||-----------------------------------4-4-4-4-4-4-4-4-------------------|
G#||--6-6-6-6-6-6-6-6---2-2-2-2-2-2-22-2-2-2-2-2-2-2-2---4-4-4-4-4-4-44--|
D#||--4-4-4-4-4-4-4-4---0-0-0-0-0-0-00-------------------2-2-2-2-2-2-22--|
      . . . . . . . .   . . . . . . .. . . . . . . . .   . . . . . . ..


D#||--------------------------------------------------------------------|
A#||--------------------------------------------------------------------|
F#||--------------------------------------------------------------------|
C#||-----------------------------------4-4-4-4-4-4-4-4------------------|
G#||--6-6-6-6-6-6-6-6---2-2-2-2-2-2-22-2-2-2-2-2-2-2-2---4-4-4-4---4----|
D#||--4-4-4-4-4-4-4-4---0-0-0-0-0-0-00-------------------2-2-2-2-0-2-0--|
      . . . . . . . .   . . . . . . .. . . . . . . . .   . . . . . . .



Pre-Chorus
Guitar 1/2:
D#||---------------------------------------------------------------------|
A#||---------------------------------------------------------------------|
F#||-----6--------------------6-6-6-6----9--------------9-9-9-9-9-9-9-9--|
C#||--66-6--6-6-6-6-6-6-6-6-6-6-6-6-6-99-9--9-9-9-9-9-9-9-9-9-9-9-9-9-9--|
G#||--44-4--4-4-4-4-4-4-4-4-4-4-4-4-4-77-7--7-7-7-7-7-7-7-7-7-7-7-7-7-7--|
D#||---------------------------------------------------------------------|
      ..    . . . . . .               ..    . . . . . .




Chorus
Guitar 1:
D#||------------------------------------------------------------|
A#||------------------------------------------------------------|
F#||--11--11--111111-13--1313---13131313--9--9--9999--99--9999--|
C#||--x---x---x-x-x--x---x-x----x-x-x-x---x--x--xxxx--xx--xxxx--|
G#||--9---9---9-9-9--11--1111---11111111--7--7--7777--77--7777--|
D#||------------------------------------------------------------|


D#||------------------------------------------------------------|
A#||------------------------------------------------------------|
F#||--11--11--111111-13--1313---13131313--9--9--9999------------|
C#||--x---x---x-x-x--x---x-x----x-x-x-x---x--x--xxxx------------|
G#||--9---9---9-9-9--11--1111---11111111--7--7--7777--99999999--|
D#||--------------------------------------------------77776666--|


D#||-----------------------------------------------------------------------|
A#||-----------------------------------------------------------------------|
F#||--15--15--15-13-15-16--1616---16161616--13-13-131313--11-1111--9--999--|
C#||--x---x---x--x--x--x---x-x----x-x-x-x---x--x--x-x-x---x--xx----x--xxx--|
G#||--13--13--13-11-13-14--1414---14141414--11-11-111111--9--99----7--777--|
D#||-----------------------------------------------------------------------|


D#||-----------------------------------------------------------------------|
A#||----------------------------------------17--17-1616---17-16---14---11--|
F#||--15--15--15-13-15-16--1616---16161616--x---x--x-x----x--x----x----x---|
C#||--x---x---x--x--x--x---x-x----x-x-x-x---14--14-1313---14-13---11---8---|
G#||--13--13--13-11-13-14--1414---14141414---------------------------------|
D#||-----------------------------------------------------------------------|


Guitar 2:
D#||--------------------------------------------------|
A#||--------------------------------------------------|
F#||---------------------------9--9--9999--99--9999---|
C#||--4--4--444-6--66---6666---9--9--9999--99--9999---|
G#||--4--4--444-6--66---6666---7--7--7777--77--7777---|
D#||--2--2--222-4--44---4444--------------------------|


D#||--------------------------------------------------|
A#||--------------------------------------------------|
F#||---------------------------9--9--9999-------------|
C#||--4--4--444-6--66---6666---9--9--9999-------------|
G#||--4--4--444-6--66---6666---7--7--7777--99999999---|
D#||--2--2--222-4--44---4444---------------77776666---|


D#||--------------------------------------------------|
A#||--------------------------------------------------|
F#||---------------------------9--9--9999--99--9999---|
C#||--4--4--444-6--66---6666---9--9--9999--99--9999---|
G#||--4--4--444-6--66---6666---7--7--7777--77--7777---|
D#||--2--2--222-4--44---4444--------------------------|


D#||---------------------------------------------------|
A#||---------------------------------------------------|
F#||---------------------------9--9--9999--------------|
C#||--4--4--444-6--66---6666---9--9--9999--------------|
G#||--4--4--444-6--66---6666---7--7--7777--99---9---4--|
D#||--2--2--222-4--44---4444---------------77---6---2--|



Verse
Guitar 1/2:
D#||---------------------------------------------------------------------|
A#||---------------------------------------------------------------------|
F#||---------------------------------------------------------------------|
C#||-----------------------------------4-4-4-4-4-4-4-4-------------------|
G#||--6-6-6-6-6-6-6-6---2-2-2-2-2-2-22-2-2-2-2-2-2-2-2---4-4-4-4-4-4-44--|
D#||--4-4-4-4-4-4-4-4---0-0-0-0-0-0-00-------------------2-2-2-2-2-2-22--|
      . . . . . . . .   . . . . . . .. . . . . . . . .   . . . . . . ..


D#||--------------------------------------------------------------------|
A#||--------------------------------------------------------------------|
F#||--------------------------------------------------------------------|
C#||-----------------------------------4-4-4-4-4-4-4-4------------------|
G#||--6-6-6-6-6-6-6-6---2-2-2-2-2-2-22-2-2-2-2-2-2-2-2---4-4-4-4---4----|
D#||--4-4-4-4-4-4-4-4---0-0-0-0-0-0-00-------------------2-2-2-2-0-2-0--|
      . . . . . . . .   . . . . . . .. . . . . . . . .   . . . . . . .



Guitar 1:
D#||-------------------11----------------------14----11----11----11----14-11---|
A#||-12----12----12-------12-------12----12-------12----12----12----12---------|
F#||----13----13----13----------11----11----11---------------------------------|
C#||---------------------------------------------------------------------------|
G#||---------------------------------------------------------------------------|
D#||---------------------------------------------------------------------------|


D#||------------------------|
A#||--11-11-11-12-11----11--|
F#||-----------------13-----|
C#||------------------------|
G#||------------------------|
D#||------------------------|


D#||-------------------11----------------------14----11----11----11----14-11---|
A#||-12----12----12-------12-------12----12-------12----12----12----12---------|
F#||----13----13----13----------11----11----11---------------------------------|
C#||---------------------------------------------------------------------------|
G#||---------------------------------------------------------------------------|
D#||---------------------------------------------------------------------------|


D#||-----------------------------|
A#||--11-11-11-12-11----11--12~--|
F#||-----------------13-----13~--|
C#||-----------------------------|
G#||-----------------------------|
D#||-----------------------------|


Guitar 2:
D#||---------------------------------------------------------------------|
A#||---------------------------------------------------------------------|
F#||---------------------------------------------------------------------|
C#||-----------------------------------4-4-4-4-4-4-4-4-------------------|
G#||--6-6-6-6-6-6-6-6---2-2-2-2-2-2-22-2-2-2-2-2-2-2-2---4-4-4-4-4-4-44--|
D#||--4-4-4-4-4-4-4-4---0-0-0-0-0-0-00-------------------2-2-2-2-2-2-22--|
      . . . . . . . .   . . . . . . .. . . . . . . . .   . . . . . . ..


D#||--------------------------------------------------------------------|
A#||--------------------------------------------------------------------|
F#||--------------------------------------------------------------------|
C#||-----------------------------------4-4-4-4-4-4-4-4------------------|
G#||--6-6-6-6-6-6-6-6---2-2-2-2-2-2-22-2-2-2-2-2-2-2-2---4-4-4-4---4----|
D#||--4-4-4-4-4-4-4-4---0-0-0-0-0-0-00-------------------2-2-2-2-0-2-0--|
      . . . . . . . .   . . . . . . .. . . . . . . . .   . . . . . . .



Pre-Chorus
Guitar 1/2:
D#||---------------------------------------------------------------------|
A#||---------------------------------------------------------------------|
F#||-----6--------------------6-6-6-6----9--------------9-9-9-9-9-9-9-9--|
C#||--66-6--6-6-6-6-6-6-6-6-6-6-6-6-6-99-9--9-9-9-9-9-9-9-9-9-9-9-9-9-9--|
G#||--44-4--4-4-4-4-4-4-4-4-4-4-4-4-4-77-7--7-7-7-7-7-7-7-7-7-7-7-7-7-7--|
D#||---------------------------------------------------------------------|
      ..    . . . . . .               ..    . . . . . .




Chorus
Guitar 1:
D#||------------------------------------------------------------|
A#||------------------------------------------------------------|
F#||--11--11--111111-13--1313---13131313--9--9--9999--99--9999--|
C#||--x---x---x-x-x--x---x-x----x-x-x-x---x--x--xxxx--xx--xxxx--|
G#||--9---9---9-9-9--11--1111---11111111--7--7--7777--77--7777--|
D#||------------------------------------------------------------|


D#||------------------------------------------------------------|
A#||------------------------------------------------------------|
F#||--11--11--111111-13--1313---13131313--9--9--9999------------|
C#||--x---x---x-x-x--x---x-x----x-x-x-x---x--x--xxxx------------|
G#||--9---9---9-9-9--11--1111---11111111--7--7--7777--99999999--|
D#||--------------------------------------------------77776666--|


D#||-----------------------------------------------------------------------|
A#||-----------------------------------------------------------------------|
F#||--15--15--15-13-15-16--1616---16161616--13-13-131313--11-1111--9--999--|
C#||--x---x---x--x--x--x---x-x----x-x-x-x---x--x--x-x-x---x--xx----x--xxx--|
G#||--13--13--13-11-13-14--1414---14141414--11-11-111111--9--99----7--777--|
D#||-----------------------------------------------------------------------|


D#||-------------------------------------------------------------|
A#||----------------------------------------17--17-161616--12~---|
F#||--15--15--15-13-15-16--1616---16161616--x---x--x-x-x---x-----|
C#||--x---x---x--x--x--x---x-x----x-x-x-x---14--14-131313--9-~---|
G#||--13--13--13-11-13-14--1414---14141414-----------------------|
D#||-------------------------------------------------------------|


Guitar 2:
D#||--------------------------------------------------|
A#||--------------------------------------------------|
F#||---------------------------9--9--9999--99--9999---|
C#||--4--4--444-6--66---6666---9--9--9999--99--9999---|
G#||--4--4--444-6--66---6666---7--7--7777--77--7777---|
D#||--2--2--222-4--44---4444--------------------------|


D#||--------------------------------------------------|
A#||--------------------------------------------------|
F#||---------------------------9--9--9999-------------|
C#||--4--4--444-6--66---6666---9--9--9999-------------|
G#||--4--4--444-6--66---6666---7--7--7777--99999999---|
D#||--2--2--222-4--44---4444---------------77776666---|


D#||--------------------------------------------------|
A#||--------------------------------------------------|
F#||---------------------------9--9--9999--99--9999---|
C#||--4--4--444-6--66---6666---9--9--9999--99--9999---|
G#||--4--4--444-6--66---6666---7--7--7777--77--7777---|
D#||--2--2--222-4--44---4444--------------------------|


D#||--------------------------------------------|
A#||--------------------------------------------|
F#||---------------------------9--9--------9~---|
C#||--4--4--444-6--66---6666---9--9--xxx---9~---|
G#||--4--4--444-6--66---6666---7--7--xxx---7~---|
D#||--2--2--222-4--44---4444---------xxx--------|



Bridge
Guitar 1:
D#||-----4--6---------------4--6-------|
A#||----4------7~----------4------7~---|
F#||---4------------------4------------|
C#||--6------------------6-------------|
G#||-----------------------------------|
D#||-----------------------------------|


D#||---------------------------------------------------|
A#||-----9--7---------------9--------------------------|
F#||----9------9~----------9---9--9/11--9--8--8h9p8----|
C#||---9------------------9-------------------------9--|
G#||--7------------------7-----------------------------|
D#||---------------------------------------------------|


D#||-----4--6---------------4--6--6h7--6--4--------|
A#||----4------7~----------4-----------------7--7--|
F#||---4------------------4------------------------|
C#||--6------------------6-------------------------|
G#||-----------------------------------------------|
D#||-----------------------------------------------|


D#||---------------------------------------------------------------------|
A#||-----9--7------------------------------------------------------------|
F#||----9------9~--------9-9-9-9--11-11-11-11--13-13-13-13--11-11-11-11--|
C#||---9-----------------x-x-x-x--x--x--x--x---x--x--x--x---x--x--x--x---|
G#||--7------------------7-7-7-7--9--9--9--9---11-11-11-11--9--9--9--9---|
D#||---------------------------------------------------------------------|


Guitar 2:
D#||-------------------------------------------------------------------------|
A#||-------------------------------------------------------------------------|
F#||-9999999999999999999999999999--------------------------------------------|
C#||-9999999999999999999999999999-x-x-x-x-6666666666666666666666666666-9999--|
G#||-7777777777777777777777777777-x-x-x-x-6666666666666666666666666666-9999--|
D#||------------------------------x-x-x-x-4444444444444444444444444444-7777--|


D#||------------------------------------|
A#||------------------------------------|
F#||-9999999999999999-------9999999999--|
C#||-9999999999999999-9999999999999999--|
G#||-7777777777777777-7777777777777777--|
D#||------------------------------------|
                      ............





Guitar 2:
D#||--------------------------------------------------|
A#||--------------------------------------------------|
F#||---------------------------9--9--9999--99--9999---|
C#||--4--4--444-6--66---6666---9--9--9999--99--9999---|
G#||--4--4--444-6--66---6666---7--7--7777--77--7777---|
D#||--2--2--222-4--44---4444--------------------------|


D#||-----------------------------|
A#||-----------------------------|
F#||-----------------------------|
C#||--4--4--444-6--66-x-x-x-x-x--|
G#||--4--4--444-6--66-x-x-x-x-x--|
D#||--2--2--222-4--44-x-x-x-x-x--|



Chorus
Guitar 1:
D#||------------------------|
A#||------------------------|
F#||--9--9--9999------------|
C#||--x--x--xxxx------------|
G#||--7--7--7777--99999999--|
D#||--------------77776666--|


D#||-----------------------------------------------------------------------|
A#||-----------------------------------------------------------------------|
F#||--15--15--15-13-15-16--1616---16161616--13-13-131313--11-1111--9--999--|
C#||--x---x---x--x--x--x---x-x----x-x-x-x---x--x--x-x-x---x--xx----x--xxx--|
G#||--13--13--13-11-13-14--1414---14141414--11-11-111111--9--99----7--777--|
D#||-----------------------------------------------------------------------|


D#||-------------------------------------------------------------------------|
A#||----------------------------------------171717-161616--------------------|
F#||--15--15--15-13-15-16--1616---16161616--x-x-x--x-x-x--18181818-16161616--|
C#||--x---x---x--x--x--x---x-x----x-x-x-x---141414-131313-x-x-x-x--x-x-x-x---|
G#||--13--13--13-11-13-14--1414---14141414----------------16161616-14141414--|
D#||-------------------------------------------------------------------------|


D#||------------------------------------------------------------|
A#||------------------------------------------------------------|
F#||--11--11--111111-13--1313---13131313--9--9--9999--99--9999--|
C#||--x---x---x-x-x--x---x-x----x-x-x-x---x--x--xxxx--xx--xxxx--|
G#||--9---9---9-9-9--11--1111---11111111--7--7--7777--77--7777--|
D#||------------------------------------------------------------|


D#||--------------------------------------------------------------------|
A#||--------------------------------------------------------------------|
F#||--11--11--111111-13--1313---13131313--9999-11111-13131313-16161616--|
C#||--x---x---x-x-x--x---x-x----x-x-x-x---xxxx-xxxx--x-x-x-x--x-x-x-x---|
G#||--9---9---9-9-9--11--1111---11111111--7777-9999--11111111-14141414--|
D#||--------------------------------------------------------------------|


Guitar 2:
D#||------------------------------|
A#||------------------------------|
F#||--9--9--9999------------------|
C#||--9--9--9999--------pick------|
G#||--7--7--7777--9999-----slide--|
D#||--------------7777------------|


D#||--------------------------------------------------|
A#||--------------------------------------------------|
F#||---------------------------9--9--9999--99--9999---|
C#||--4--4--444-6--66---6666---9--9--9999--99--9999---| x3
G#||--4--4--444-6--66---6666---7--7--7777--77--7777---|
D#||--2--2--222-4--44---4444--------------------------|


D#||--------------------------------------------------|
A#||--------------------------------------------------|
F#||---------------------------9--9--9999-------------|
C#||--4--4--444-6--66---6666---9--9--9999-------------|
G#||--4--4--444-6--66---6666---7--7--7777--99999999---|
D#||--2--2--222-4--44---4444---------------77776666---|



Chorus / Outro
Guitar 1:
D#||-----------------------------------------------------------------------|
A#||-----------------------------------------------------------------------|
F#||--15--15--15-13-15-16--1616---16161616--13-13-131313--11-1111--9--999--|
C#||--x---x---x--x--x--x---x-x----x-x-x-x---x--x--x-x-x---x--xx----x--xxx--|
G#||--13--13--13-11-13-14--1414---14141414--11-11-111111--9--99----7--777--|
D#||-----------------------------------------------------------------------|


D#||-------------------------------------------------------------------------|
A#||------------------------------------17171717-16161616--------------------|
F#||--1515151515151515-1616161616161616-x-x-x-x--x-x-x-x--18181818-16161616--|
C#||--x-x-x-x-x-x-x-x--x-x-x-x-x-x-x-x--14141414-13131313-x-x-x-x--x-x-x-x---|
G#||--1313131313131313-1414141414141414-------------------16161616-14141414--|
D#||-------------------------------------------------------------------------|


D#||-----------------------------|
A#||-----------------------------|
F#||--15~--------16~--------13~--|
C#||--x----------x----------x----|
G#||--13~--------14~--------11~--|
D#||-----------------------------|


Guitar 2:
D#||--------------------------------------------------|
A#||--------------------------------------------------|
F#||---------------------------9--9--9999--99--9999---|
C#||--4--4--444-6--66---6666---9--9--9999--99--9999---|
G#||--4--4--444-6--66---6666---7--7--7777--77--7777---|
D#||--2--2--222-4--44---4444--------------------------|


D#||--------------------------------------|
A#||--------------------------------------|
F#||--------------------9999999999999999--|
C#||--44444444-66666666-9999999999999999--|
G#||--44444444-66666666-7777777777777777--|
D#||--22222222-44444444-------------------|


D#||---------------------------|
A#||---------------------------|
F#||----------------------9~---|
C#||--4~--------6~--------9~---|
G#||--4~--------6~--------7~---|
D#||--2~--------4~-------------|





____________________________________________________________________________________________________

                                      T12.   IN MEMORY OF...
____________________________________________________________________________________________________





Tuning: Half-Step Down (D# G# C# F# A# D#)



Intro
Guitar 1:
D#||--------------------------------------------------------------------------|
A#||--------------------------------------------------------------------------|
F#||--------------------------------------------------------------------------|
C#||--------16b17r16~---------12/14-14~----------16b17r16~---------12/14-14~--|
G#||-----14----------------11-----------------14----------------11------------|
D#||--12-----------------8-----------------12-----------------8---------------|


D#||--------------------------------------------------------|
A#||--------------------------------------------------------|
F#||--------------------------------------------------------|
C#||--------------12-12--------------7-7--------------------|
G#||--------10-10--------------10-10----------7h9-9/10-10~--|
D#||--12-12--------------10-10------------8-8---------------|



Guitar 1:
D#||--------------------------------------------------------------------------|
A#||--------------------------------------------------------------------------|
F#||--------------------------------------------------------------------------|
C#||--------16b17r16~---------12/14-14~----------16b17r16~---------12/14-14~--|
G#||-----14----------------11-----------------14----------------11------------|
D#||--12-----------------8-----------------12-----------------8---------------|


D#||---------------------------------------------------------------|
A#||---------------------------------------------------------------|
F#||---------------------------------------------------------------|
C#||--------------12-12--------------7-7---------------------------|
G#||--------10-10--------------10-10----------7h9-9/10-10~---\9p7--|
D#||--12-12--------------10-10------------8-8----------------------|


Guitar 2:
D#||---------------------------------------------------------------|
A#||---------------------------------------------------------------|
F#||---------------------------------------------------7~----------|
C#||---------------------------------------------------5~----------|
G#||---------------------------------------------------------------|
D#||---------------------------------------------------------------|


Guitar 1:
D#||--------------------------------------------------------------------------|
A#||--------------------------------------------------------------------------|
F#||--------------------------------------------------------------------------|
C#||--------16b17r16~---------12/14-14~----------16b17r16~---------12/14-14~--|
G#||-----14----------------11-----------------14----------------11------------|
D#||--12-----------------8-----------------12-----------------8---------------|


D#||--------------------------------------------------------|
A#||--------------------------------------------------------|
F#||--------------------------------------------------------|
C#||--------------12-12--------------7-7--------------------|
G#||--------10-10--------------10-10----------7h9-9/10-10~--|
D#||--12-12--------------10-10------------8-8---------------|


Guitar 2:
D#||--------------------------------------------------------|
A#||--------------------------------------------------------|
F#||---------------------------------------------------7~---|
C#||---------------------------------------------------5~---|
G#||--------------------------------------------------------|
D#||--------------------------------------------------------|



Guitar 1:
D#||--------------------------------------------------------------------------|
A#||--------------------------------------------------------------------------|
F#||--------------------------------------------------------------------------|
C#||--------16b17r16~---------12/14-14~----------16b17r16~---------12/14-14~--|
G#||-----14----------------11-----------------14----------------11------------|
D#||--12-----------------8-----------------12-----------------8---------------|


D#||---------------------------------------|
A#||---------------------------------------|
F#||---------------------------------------|
C#||--------------12-12--------------7-7---|
G#||--------10-10--------------10-10-------|
D#||--12-12--------------10-10-------------|


Guitar 1/2:
D#||--------------------|
A#||--------------------|
F#||---7---7---7---7~---|
C#||---5---5---5---5~---|
G#||---3---3---3---3~---|
D#||--------------------|



Chorus
Guitar 1:
D#||-------------------------------------------------------|
A#||-------------------------------------------------------|
F#||---7~---7---7-7~---7---7-------------------------------|
C#||---5~---5---5-5~---5---5--4b5~---r4~--0-4b5~---r4~--0--|
G#||---3~---3---3-3~---3---3-------------------------------|
D#||-------------------------------------------------------|


D#||-------------------------------------------------------|
A#||-------------------------------------------------------|
F#||--------------------------7/9-9-9-9-9-9\7-7-7~---7/9~--|
C#||---0h2~------------------------------------------------|
G#||-------------------------------------------------------|
D#||-------------------------------------------------------|


D#||-------------------------------|
A#||-------------------------------|
F#||-------------------------------|
C#||--4b5~---r4~--0-4b5~---r4~--0--|
G#||-------------------------------|
D#||-------------------------------|


D#||-----------------------------------------------------|
A#||--------------------------8-8-8-8-8-8-8-8-8-8-8-8----|
F#||--------------------------x-x-x-x-x-x-x-x-x-x-x-x----|
C#||---0h2~-------------------x-x-x-x-x-x-x-x-x-x-x-x----|
G#||--------------------------7-7-7-7-7-7-7-7-7-7-7-7----|
D#||-----------------------------------------------------|


Guitar 2:
D#||------------------------------------------------|
A#||------------------------------------------------|
F#||---7~---7---7-7~---7---7-7~---7~---7-7~--7777---|
C#||---5~---5---5-5~---5---5-5~---5~---5-5~--5555---|
G#||---3~---3---3-3~---3---3-3~---3~---3-3~--3333---|
D#||------------------------------------------------|


D#||-------------------------------------------------|
A#||-------------------------------------------------|
F#||-------------------------------------------------|
C#||---2~---2---2-2~---2---2-2~---2~---2-2~---2222---| x2
G#||---2~---2---2-2~---2---2-2~---2~---2-2~---2222---|
D#||---0~---0---0-0~---0---0-0~---0~---0-0~---0000---|



Verse
Guitar 1:
D#||---------------------------------------------------|---------------------------------------|
A#||--7-8---8---8-8-5---5---5-5-3---3---3-3-3---3---3--|--7-8---8---8-8-5---5---5-5-3---3---3--|
F#||--x-x---x---x-x-x---x---x-x-x---x---x-x-x---x---x--|--x-x---x---x-x-x---x---x-x-x---x---x--|
C#||--x-x---x---x-x-x---x---x-x-x---x---x-x-x---x---x--|--x-x---x---x-x-x---x---x-x-x---x---x--|
G#||--5-7---7---7-7-5---5---5-5-3---3---3-3-3---3---3--|--5-7---7---7-7-5---5---5-5-3---3---3--|
D#||---------------------------------------------------|---------------------------------------|


Guitar 1/2:
D#||----------------|
A#||----------------|
F#||--4~---4~---4~--|
C#||--x----x----x---| x2
G#||--5~---5~---5~--|
D#||--3~---3~---3~--|



Chorus
Guitar 1:
D#||-------------------------------------------------------|
A#||-------------------------------------------------------|
F#||---7~---7---7-7~---7---7-------------------------------|
C#||---5~---5---5-5~---5---5--4b5~---r4~--0-4b5~---r4~--0--|
G#||---3~---3---3-3~---3---3-------------------------------|
D#||-------------------------------------------------------|


D#||-------------------------------------------------------|
A#||-------------------------------------------------------|
F#||--------------------------7/9-9-9-9-9-9\7-7-7~---7/9~--|
C#||---0h2~------------------------------------------------|
G#||-------------------------------------------------------|
D#||-------------------------------------------------------|


D#||-------------------------------|
A#||-------------------------------|
F#||-------------------------------|
C#||--4b5~---r4~--0-4b5~---r4~--0--|
G#||-------------------------------|
D#||-------------------------------|


D#||----------------------------------------|
A#||----------------------------------------|
F#||----------------------------------------|
C#||---0h2~---------------------------------|
G#||------------------------------------5---|
D#||---------------------0--2--3--5--7------|


Guitar 2:
D#||------------------------------------------------|
A#||------------------------------------------------|
F#||---7~---7---7-7~---7---7-7~---7~---7-7~--7777---|
C#||---5~---5---5-5~---5---5-5~---5~---5-5~--5555---|
G#||---3~---3---3-3~---3---3-3~---3~---3-3~--3333---|
D#||------------------------------------------------|


D#||-------------------------------------------------|
A#||-------------------------------------------------|
F#||-------------------------------------------------|
C#||---2~---2---2-2~---2---2-2~---2~---2-2~---2222---| x2
G#||---2~---2---2-2~---2---2-2~---2~---2-2~---2222---|
D#||---0~---0---0-0~---0---0-0~---0~---0-0~---0000---|



Guitar 1:
D#||-------------------------------------------|-------------------------------------|
A#||-------------------------------------------|-------------------------------------|
F#||--------7----------------------------------|--------7----------------------------|
C#||-----5-----9--7~----5----5--7--7/9---7--5--|-----5-----9--7~----5----5--7--7/9~--| x2
G#||--3-------------------7--------------------|--7-------------------7--------------|
D#||-------------------------------------------|-------------------------------------|


Guitar 2:
D#||------------------------------------------------|
A#||------------------------------------------------|
F#||---7~---7---7-7~---7---7-7~---7~---7-7~--7777---|
C#||---5~---5---5-5~---5---5-5~---5~---5-5~--5555---|
G#||---3~---3---3-3~---3---3-3~---3~---3-3~--3333---|
D#||------------------------------------------------|


D#||-------------------------------------------------|
A#||-------------------------------------------------|
F#||-------------------------------------------------|
C#||---2~---2---2-2~---2---2-2~---2~---2-2~---2222---| x2
G#||---2~---2---2-2~---2---2-2~---2~---2-2~---2222---|
D#||---0~---0---0-0~---0---0-0~---0~---0-0~---0000---|



Interlude
Guitar 1:
D#||---------------------------------------------------------------|
A#||-------0-----0-----0-------------------------------------------|
F#||-----0-----0-----0---------0-------0-------0-------0-------0---|
C#||---2-----4-----5-----4-----------4---4-----------4---4---------| x4
G#||-----------------------3-2---2-3-------3-2---2-3-------3-2-----|
D#||---------------------------------------------------------------|


Guitar 2:
D#||--------------------------|
A#||--------------------------|
F#||--------------------------|
C#||--------------------------| x4
G#||---------------------3~---|
D#||---0~----2~----3~---------|



Guitar 1:
D#||-------------------------------------------------------|
A#||-------------------------------------------------------|
F#||--9~----7~-----9~----55---5555---55---5555--55---5555--|
C#||--x-----x------x-----xx---xxxx---xx---xxxx--xx---xxxx--| x2
G#||--7~----5~-----7~----33---3333---33---3333--33---3333--|
D#||-------------------------------------------------------|


D#||-------------------------------------------------------|
A#||-------------------------------------------------------|
F#||--9~----11~----12~---99---9999---99---9999--99---9777--|
C#||--x-----x------x-----xx---xxxx---xx---xxxx--xx---xxxx--| x2
G#||--7~----9~-----10~---77---7777---77---7777--77---7555--|
D#||-------------------------------------------------------|


Guitar 2:
D#||-------------------------------------------------------|
A#||-------------------------------------------------------|
F#||---------------------55---5555---55---5555--55---5555--|
C#||---2~----4~----5~----55---5555---55---5555--55---5555--| x4
G#||---2~----4~----5~----33---3333---33---3333--33---3333--|
D#||---0~----2~----3~--------------------------------------|



Guitar 1:
D#||--------------------------------------------------------------------------|
A#||--------------------------------------------------------------------------|
F#||--12~---14~----16~---1212---12121212---1212---12121212---1212---12111111--|
C#||--x-----x------x-----x-x----x-x-x-x----x-x----x-x-x-x----x-x----x-x-x-x---| x2
G#||--10~---12~----14~---1010---10101010---1010---10101010---1010---109-9-9---|
D#||--------------------------------------------------------------------------|


D#||------------------------------------------------------------------------------------------|
A#||------------------------------------------------------------------------------------------|
F#||--12~---14~----16~---12-------------------------------------------------------------------|
C#||--x-----x------x-----x-----------12-12-------------7-7-----------12-12--------------------|
G#||--10~---12~----14~---10----10-10-------------10-10---------10-10-------------10-10-12-12--|
D#||---------------------------------------10-10-----------8-8-------------10-10--------------|


Guitar 2:
D#||-------------------------------------------------------|
A#||-------------------------------------------------------|
F#||--9~----11~----12~---99---9999---99---9999--99---9777--|
C#||--x-----x------x-----xx---xxxx---xx---xxxx--xx---xxxx--| x2
G#||--7~----9~-----10~---77---7777---77---7777--77---7555--|
D#||-------------------------------------------------------|


D#||------------------------|
A#||------------------------|
F#||--9~----11~----12~---9--|
C#||--x-----x------x-----x--|
G#||--7~----9~-----10~---7--|
D#||------------------------|


Guitar 3:
D#||------------------------------------------------------|
A#||------------------------------------------------------|
F#||--------------------55---5555---55---5555--55---5555--|
C#||---2~----4~----5~---55---5555---55---5555--55---5555--| x2
G#||---2~----4~----5~---33---3333---33---3333--33---3333--|
D#||---0~----2~----3~-------------------------------------|


D#||--------------------------------------------------------------------------------|
A#||--------------------------------------------------------------------------------|
F#||--------------------------------------------------------------------------------|
C#||---2~----4~----5--2------------------------------------5-5-5-5-5-5-7-7-7-7-7-7--|
G#||---2~----4~----5--2------------------------------------3-3-3-3-3-3-5-5-5-5-5-5--|
D#||---0~----2~----3--0-------------------------------------------------------------|
                                                           . . . . . . . . . . . .



Chorus
Guitar 1:
D#||-------------------------------------------------------|
A#||-------------------------------------------------------|
F#||---7~---7---7-7~---7---7-------------------------------|
C#||---5~---5---5-5~---5---5--4b5~---r4~--0-4b5~---r4~--0--|
G#||---3~---3---3-3~---3---3-------------------------------|
D#||-------------------------------------------------------|


D#||-------------------------------------------------------|
A#||-------------------------------------------------------|
F#||--------------------------7/9-9-9-9-9-9\7-7-7~---7/9~--|
C#||---0h2~------------------------------------------------|
G#||-------------------------------------------------------|
D#||-------------------------------------------------------|


D#||-------------------------------|
A#||-------------------------------|
F#||-------------------------------|
C#||--4b5~---r4~--0-4b5~---r4~--0--|
G#||-------------------------------|
D#||-------------------------------|


D#||----------------------------------------|
A#||----------------------------------------|
F#||----------------------------------------|
C#||---0h2~---------------------------------|
G#||------------------------------------5---|
D#||---------------------0--2--3--5--7------|


Guitar 2:
D#||------------------------------------------------|
A#||------------------------------------------------|
F#||---7~---7---7-7~---7---7-7~---7~---7-7~--7777---|
C#||---5~---5---5-5~---5---5-5~---5~---5-5~--5555---|
G#||---3~---3---3-3~---3---3-3~---3~---3-3~--3333---|
D#||------------------------------------------------|


D#||-------------------------------------------------|
A#||-------------------------------------------------|
F#||-------------------------------------------------|
C#||---2~---2---2-2~---2---2-2~---2~---2-2~---2222---| x2
G#||---2~---2---2-2~---2---2-2~---2~---2-2~---2222---|
D#||---0~---0---0-0~---0---0-0~---0~---0-0~---0000---|



Guitar 1:
D#||-------------------------------------------|-------------------------------------|
A#||-------------------------------------------|-------------------------------------|
F#||--------7----------------------------------|--------7----------------------------|
C#||-----5-----9--7~----5----5--7--7/9---7--5--|-----5-----9--7~----5----5--7--7/9~--| x2
G#||--3-------------------7--------------------|--7-------------------7--------------|
D#||-------------------------------------------|-------------------------------------|


Guitar 2:
D#||------------------------------------------------|
A#||------------------------------------------------|
F#||---7~---7---7-7~---7---7-7~---7~---7-7~--7777---|
C#||---5~---5---5-5~---5---5-5~---5~---5-5~--5555---|
G#||---3~---3---3-3~---3---3-3~---3~---3-3~--3333---|
D#||------------------------------------------------|


D#||-------------------------------------------------|
A#||-------------------------------------------------|
F#||-------------------------------------------------|
C#||---2~---2---2-2~---2---2-2~---2~---2-2~---2222---| x2
G#||---2~---2---2-2~---2---2-2~---2~---2-2~---2222---|
D#||---0~---0---0-0~---0---0-0~---0~---0-0~---0000---|


Guitar 3:
D#||-1212-00-1212-00-1212-00-1212-00-1212-00-1212-00--|
A#||--------------------------------------------------|
F#||--------------------------------------------------|
C#||--------------------------------------------------|
G#||--------------------------------------------------|
D#||--------------------------------------------------|



D#||-1414-00-1414-00-1414-00-1515-00-1515-00-1515-00--|
A#||--------------------------------------------------|
F#||--------------------------------------------------|
C#||--------------------------------------------------| x4
G#||--------------------------------------------------|
D#||--------------------------------------------------|




Guitar 1:
D#||--12~--\---7~--/---10~--\---5~--/---7~--/---10~--\---0~--|
A#||---------------------------------------------------------|
F#||---------------------------------------------------------|
C#||---------------------------------------------------------|
G#||---------------------------------------------------------|
D#||---------------------------------------------------------|


D#||--12~--\---7~--/---10~--\---5~--/---7~----10--12~--|
A#||---------------------------------------------------|
F#||---------------------------------------------------|
C#||---------------------------------------------------|
G#||---------------------------------------------------|
D#||---------------------------------------------------|


D#||-1212-00-1212-00-1212-00-1212-00-1212--|
A#||---------------------------------------|
F#||---------------------------------------|
C#||---------------------------------------|
G#||---------------------------------------|
D#||---------------------------------------|


Guitar 2:
D#||-------------------------------------------|-------------------------------------|
A#||-------------------------------------------|-------------------------------------|
F#||--------7----------------------------------|--------7----------------------------|
C#||-----5-----9--7~----5----5--7--7/9---7--5--|-----5-----9--7~----5----5--7--7/9~--| x2
G#||--3-------------------7--------------------|--7-------------------7--------------|
D#||-------------------------------------------|-------------------------------------|



Instrumental / Outro
Guitar 1:
D#||-1212-00-1212-00-1212-00-1212-00-1212-00-1212-00--|
A#||--------------------------------------------------|
F#||--------------------------------------------------|
C#||--------------------------------------------------|
G#||--------------------------------------------------|
D#||--------------------------------------------------|



D#||-1414-00-1414-00-1414-00-1515-00-1515-00-1515-00--|
A#||--------------------------------------------------|
F#||--------------------------------------------------|
C#||--------------------------------------------------| x4
G#||--------------------------------------------------|
D#||--------------------------------------------------|


D#||--12~--|
A#||-------|
F#||-------|
C#||-------|
G#||-------|
D#||-------|


Guitar 2:
D#||--12~--\---7~--/---10~--\---5~--/---7~--|
A#||----------------------------------------|
F#||----------------------------------------|
C#||----------------------------------------|
G#||----------------------------------------|
D#||----------------------------------------|





____________________________________________________________________________________________________

                                 T13.   BURNING HEARTS (ACOUSTIC)
____________________________________________________________________________________________________





Tuning: Half-Step Down (D# G# C# F# A# D#)



Intro
Guitar 1:
D#||------------------------------------|------------------------------------|
A#||-----------------0-----0-----0------|-----------------0-----0-----0------|
F#||------7--7---7-----7-----7-----7----|------7--7---7-----7-----7-----7----|
C#||----7----7-----7-----7-----7-----7--|----7----7-----7-----7-----7-----7--|
G#||--0------x--------------------------|--0------x--------------------------|
D#||---------7--------------------------|---------7--------------------------|


D#||-------------0-----0-----0-----0----|-------------0-----0-----0-----0----|
A#||---------------3-----3-----3-----3--|---------------3-----3-----3-----3--|
F#||------2--0-------0-----0-----0------|------2--0-------0-----0-----0------|
C#||----2----0--------------------------|----2----0--------------------------| x2
G#||--0------x--------------------------|--0------x--------------------------|
D#||---------3--------------------------|---------3--------------------------|


Guitar 2:
D#||------------------------------------|------------------------------------|
A#||------------------------------------|------------------------------------|
F#||------7--7~-------------------------|------7--7~-------------------------|
C#||----7----7~-------------------------|----7----7~-------------------------|
G#||--0------x--------------------------|--0------x--------------------------|
D#||---------7~-------------------------|---------7~-------------------------|


D#||------------------------------------|------------------------------------|
A#||------------------------------------|------------------------------------|
F#||------2--0~-------------------------|------2--0~-------------------------|
C#||----2----0~-------------------------|----2----0~-------------------------|
G#||--0------x--------------------------|--0------x--------------------------|
D#||---------3~-------------------------|---------3~-------------------------|


D#||------------------------------------|------------------------------------|
A#||------------------------------------|------------------------------------|
F#||------7--------7~------7~------7~---|------7--------7~------7~------7~---|
C#||----7----------7~------7~------7~---|----7----------7~------7~------7~---|
G#||--0------------x-------x-------x----|--0------------x-------x-------x----|
D#||---------7~----7~------7~------7~---|---------7~----7~------7~------7~---|


D#||------------------------------------|------------------------------------|
A#||------------------------------------|------------------------------------|
F#||------2--------0~------0~------0~---|------2--------0~------0~------0~---|
C#||----2----------0~------0~------0~---|----2----------0~------0~------0~---|
G#||--0------------x-------x-------x----|--0------------x-------x-------x----|
D#||---------3~----3~------3~------3~---|---------3~----3~------3~------3~---|


Guitar 1/2:
D#||-------------|
A#||-------------|
F#||------7--7---|
C#||----7----7---|
G#||--0------x---|
D#||---------7---|



Verse
Guitar 1/2:
D#||--------------------------|
A#||---3--33--3333--33--333---|
F#||---0--00--0000--00--000---|
C#||---0--00--0000--00--000---|
G#||---x--xx--xxxx--xx--xxx---|
D#||---3--33--3333--33--333---|


D#||--------------0--00--000------------------------|
A#||--3--33--333--3--33--333--3--33--3333--33--333--|
F#||--4--44--444--4--44--444--0--00--0000--00--000--|
C#||--4--44--444--2--22--222--0--00--0000--00--000--|
G#||--2--22--222--------------x--xx--xxxx--xx--xxx--|
D#||--------------------------3--33--3333--33--333--|


Guitar 1:
D#||---------------------------------------------------|
A#||---------------------------------------------------|
F#||--------9--7-----6-7--6------------11/12---11--9~--|
C#||------9------------------9---7~----x-/x----x---x---|
G#||----9------------------------------9-/10---9---7~--|
D#||--7------------------------------------------------|


D#||---------------------------------------------------|
A#||---------------------------------------------------|
F#||--------9--7-----6-7--6------------11~---9~---7~---|
C#||------9------------------9---7~----x-----x----x----|
G#||----9------------------------------9-~---7~---5~---|
D#||--7------------------------------------------------|


Guitar 2:
D#||--------------0--00--000------------------------|
A#||--3--33--333--3--33--333--3--33--3333--33--333--|
F#||--4--44--444--4--44--444--0--00--0000--00--000--|
C#||--x--xx--xxx--2--22--222--0--00--0000--00--000--|
G#||--2--22--222--------------x--xx--xxxx--xx--xxx--|
D#||--------------------------3--33--3333--33--333--|


D#||--------------0--00--000----------------------|
A#||--3--33--333--3--33--333--3--33--33333333333--|
F#||--4--44--444--4--44--444--0--00--00000000000--|
C#||--4--44--444--2--22--222--0--00--00000000000--|
G#||--2--22--222--------------x--xx--xxxxxxxxxxx--|
D#||--------------------------3--33--33333333333--|



Chorus
Guitar 1:
D#||--2-----0-----2----5-----2-----0----2-----0-----2----5-----2-----0----|
A#||----3-----3-----3----3-----3-----3----3-----3-----3----3-----3-----3--|
F#||------4-----4----------4-----4----------2-----2----------2-----2------|
C#||----------------------------------------------------------------------|
G#||----------------------------------------------------------------------|
D#||----------------------------------------------------------------------|


D#||--3-----2-----0----2-----0--------------------------------------------|
A#||----0-----0-----0----0-----0---3---5-----3h5-----3---2-----2-----2----|
F#||-------------------------------------2-------2-----2---2-----2-----2--|
C#||------4-----4----------4-----4---------0-------0---------0-----0------|
G#||----------------------------------------------------------------------|
D#||----------------------------------------------------------------------|


D#||--2-----0-----2----5-----2-----0----2-----0-----2----5-----2-----5----|
A#||----3-----3-----3----3-----3-----3----3-----3-----3----3-----3-----3--|
F#||------4-----4----------4-----4----------2-----2----------2-----2------|
C#||----------------------------------------------------------------------|
G#||----------------------------------------------------------------------|
D#||----------------------------------------------------------------------|


D#||--3-----2-----0----2-----0-----------------------------|
A#||----0-----0-----0----0-----0---3---5-----5-----3---2~--|
F#||-------------------------------------2-----2-----2-2~--|
C#||------4-----4----------4-----4---------0-----0---------|
G#||-------------------------------------------------------|
D#||-------------------------------------------------------|


Guitar 2:
D#||---------------------------------------|--------------------------------------|
A#||--33333333----------77777777-----------|--33333333----------2222222222222222--|
F#||--44444444-44444444-77777777-66666666--|--44444444-55555555-2222222222222222--|
C#||--44444444-55555555-77777777-77777777--|--44444444-55555555-2222222222222222--|
G#||--22222222-55555555-55555555-77777777--|--22222222-55555555-0000000000000000--|
D#||-----------33333333----------55555555--|-----------33333333-------------------|


D#||---------------------------------------|--------------------------------|
A#||--33333333----------77777777-----------|--33333333-00000000-222222222~--|
F#||--44444444-44444444-77777777-66666666--|--44444444-00000000-222222222~--|
C#||--44444444-55555555-77777777-77777777--|--44444444-00000000-222222222~--|
G#||--22222222-55555555-55555555-77777777--|--22222222-xxxxxxxx-000000000~--|
D#||-----------33333333----------55555555--|-----------33333333-------------|



Verse
Guitar 1/2:
D#||--------------------------|
A#||---3--33--3333--33--333---|
F#||---0--00--0000--00--000---|
C#||---0--00--0000--00--000---|
G#||---x--xx--xxxx--xx--xxx---|
D#||---3--33--3333--33--333---|


D#||--------------0--00--000------------------------|
A#||--3--33--333--3--33--333--3--33--3333--33--333--|
F#||--4--44--444--4--44--444--0--00--0000--00--000--|
C#||--4--44--444--2--22--222--0--00--0000--00--000--|
G#||--2--22--222--------------x--xx--xxxx--xx--xxx--|
D#||--------------------------3--33--3333--33--333--|


Guitar 1:
D#||---------------------------------------------------|
A#||---------------------------------------------------|
F#||--------9--7-----6-7--6------------11/12---11--9~--|
C#||------9------------------9---7~----x-/x----x---x---|
G#||----9------------------------------9-/10---9---7~--|
D#||--7------------------------------------------------|


D#||---------------------------------------------------|
A#||---------------------------------------------------|
F#||--------9--7-----6-7--6------------11~---9~---7~---|
C#||------9------------------9---7~----x-----x----x----|
G#||----9------------------------------9-~---7~---5~---|
D#||--7------------------------------------------------|


Guitar 2:
D#||--------------0--00--000------------------------|
A#||--3--33--333--3--33--333--3--33--3333--33--333--|
F#||--4--44--444--4--44--444--0--00--0000--00--000--|
C#||--x--xx--xxx--2--22--222--0--00--0000--00--000--|
G#||--2--22--222--------------x--xx--xxxx--xx--xxx--|
D#||--------------------------3--33--3333--33--333--|


D#||--------------0--00--000----------------------|
A#||--3--33--333--3--33--333--3--33--33333333333--|
F#||--4--44--444--4--44--444--0--00--00000000000--|
C#||--4--44--444--2--22--222--0--00--00000000000--|
G#||--2--22--222--------------x--xx--xxxxxxxxxxx--|
D#||--------------------------3--33--33333333333--|



Chorus
Guitar 1:
D#||--2-----0-----2----5-----2-----0----2-----0-----2----5-----2-----0----|
A#||----3-----3-----3----3-----3-----3----3-----3-----3----3-----3-----3--|
F#||------4-----4----------4-----4----------2-----2----------2-----2------|
C#||----------------------------------------------------------------------|
G#||----------------------------------------------------------------------|
D#||----------------------------------------------------------------------|


D#||--3-----2-----0----2-----0--------------------------------------------|
A#||----0-----0-----0----0-----0---3---5-----3h5-----3---2-----2-----2----|
F#||-------------------------------------2-------2-----2---2-----2-----2--|
C#||------4-----4----------4-----4---------0-------0---------0-----0------|
G#||----------------------------------------------------------------------|
D#||----------------------------------------------------------------------|


D#||--2-----0-----2----5-----2-----0----2-----0-----2----5-----2-----5----|
A#||----3-----3-----3----3-----3-----3----3-----3-----3----3-----3-----3--|
F#||------4-----4----------4-----4----------2-----2----------2-----2------|
C#||----------------------------------------------------------------------|
G#||----------------------------------------------------------------------|
D#||----------------------------------------------------------------------|


D#||--3-----2-----0----2-----0-----------------------------|
A#||----0-----0-----0----0-----0---3---5-----5-----3---2~--|
F#||-------------------------------------2-----2-----2-2~--|
C#||------4-----4----------4-----4---------0-----0---------|
G#||-------------------------------------------------------|
D#||-------------------------------------------------------|


Guitar 2:
D#||---------------------------------------|--------------------------------------|
A#||--33333333----------77777777-----------|--33333333----------2222222222222222--|
F#||--44444444-44444444-77777777-66666666--|--44444444-55555555-2222222222222222--|
C#||--44444444-55555555-77777777-77777777--|--44444444-55555555-2222222222222222--|
G#||--22222222-55555555-55555555-77777777--|--22222222-55555555-0000000000000000--|
D#||-----------33333333----------55555555--|-----------33333333-------------------|


D#||---------------------------------------|--------------------------------|
A#||--33333333----------77777777-----------|--33333333-00000000-222222222~--|
F#||--44444444-44444444-77777777-66666666--|--44444444-00000000-222222222~--|
C#||--44444444-55555555-77777777-77777777--|--44444444-00000000-222222222~--|
G#||--22222222-55555555-55555555-77777777--|--22222222-xxxxxxxx-000000000~--|
D#||-----------33333333----------55555555--|-----------33333333-------------|



Bridge
Guitar 1:
D#||----------------------0~-------------|
A#||--3~--------7~--------0~--------3~---|
F#||--4~--------7~--------x---------0~---|
C#||--4~--------7~--------2~--------0~---| x2
G#||--2~--------5~--------2~--------x----|
D#||----------------------0~--------3~---|


Guitar 2:
D#||-------------------------------------------------------------------|
A#||-------------------------------------------------------------------|
F#||-------------------------------------------------------------------|
C#||----0---0---0---0---0---0---0---0---4---4---4---4---4---4---4---4--|
G#||--2---2---2---2---2---2---2---2---5---5---5---5---5---5---5---5----|
D#||-------------------------------------------------------------------|


D#||-------------------------------------------------------------------|
A#||-------------------------------------------------------------------|
F#||-------------------------------------------------------------------|
C#||----5---5---5---5---5---5---5---5---0---0---0---0---0---0---0---0--|
G#||--7---7---7---7---7---7---7---7------------------------------------|
D#||----------------------------------3---3---3---3---3---3---3---3----|


Guitar 1/2:
D#||-------------------------------------------------------------------|
A#||-------------------------------------------------------------------|
F#||-------------------------------------------------------------0000--|
C#||--44444444444444447777777777777777----------------------000000000--|
G#||--22222222222222225555555555555555222222222222222xxxxxxxxxxxxxxxx--|
D#||----------------------------------0000000000000003333333333333333--|
      .........................................................


Interlude
Guitar 1:
D#||-------------------------------------------------------------------|
A#||--------3---------------0---------------3---------------3----------|
F#||----4-------4---4---0-------0---0---0-------0---0---0-------0---0--|
C#||------4-------4-------0-------0-------0-------0-------0-------0----|
G#||--2----------------------------------------------------------------|
D#||------------------0---------------3---------------3----------------|


D#||----------------------------------------------------|
A#||--------3---------------0---------------------------|
F#||----4-------4---4---0-------0---0---------00000000--|
C#||------4-------4-------0-------0-------000000000000--|
G#||--2-----------------------------------xxxxxxxxxxxx--|
D#||------------------0---------------3333333333333333--|



Solo
Guitar 1:
D#||---------------------------------10~--|-------------------------10~--15~--14~--|
A#||--15--14-----15--14----------12~------|--15--14-----15--14------10~--10~--10~--|
F#||---------14---------14-\-12~----------|---------14---------14------------------|
C#||--------------------------------------|----------------------------------------|
G#||--------------------------------------|----------------------------------------|
D#||--------------------------------------|----------------------------------------|


D#||-----10----10----10----10----12----12----12----12--|
A#||--10----10----10----10----10----10----10----10-----|
F#||---------------------------------------------------|
C#||---------------------------------------------------|
G#||---------------------------------------------------|
D#||---------------------------------------------------|


D#||-----14----14----14----14----14----14----14----14--|
A#||--10----10----10----10----10----10----10----10-----|
F#||---------------------------------------------------|
C#||---------------------------------------------------|
G#||---------------------------------------------------|
D#||---------------------------------------------------|


D#||--10-10-10-10-10-10-10-10-12-12-12-12-12-12-12-12--|
A#||--10-10-10-10-10-10-10-10-10-10-10-10-10-10-10-10--|
F#||---------------------------------------------------|
C#||---------------------------------------------------|
G#||---------------------------------------------------|
D#||---------------------------------------------------|


D#||--17-17-17-17-17-17-17-17-17-17-17-17-17-17-17~--|
A#||--19-19-19-19-19-19-19-19-19-19-19-19-19-19-19~--|
F#||-------------------------------------------------|
C#||-------------------------------------------------|
G#||-------------------------------------------------|
D#||-------------------------------------------------|


Guitar 2:
D#||-----------------------------------------------|
A#||--3--33--333-0--00--000--3--33--3333--33--333--|
F#||--4--44--444-0--00--000--0--00--0000--00--000--|
C#||--4--44--444-0--00--000--0--00--0000--00--000--|
G#||--2--22--222-x--xx--xxx--x--xx--xxxx--xx--xxx--|
D#||-------------0--00--000--3--33--3333--33--333--|


D#||-----------------------------------------------|
A#||--3--33--333-5--55--555--3--33--3333--33--333--|
F#||--4--44--444-4--44--444--0--00--0000--00--000--|
C#||--4--44--444-2--22--222--0--00--0000--00--000--|
G#||--2--22--222-------------x--xx--xxxx--xx--xxx--|
D#||-------------------------3--33--3333--33--333--|


D#||-----------------------------------------------|
A#||--3--33--333-0--00--000--3--33--3333--33--333--|
F#||--4--44--444-0--00--000--0--00--0000--00--000--|
C#||--4--44--444-0--00--000--0--00--0000--00--000--|
G#||--2--22--222-x--xx--xxx--x--xx--xxxx--xx--xxx--|
D#||-------------0--00--000--3--33--3333--33--333--|


D#||---------------------------------------------|
A#||--3--33--333-5--55--555--3--33--33333333333--|
F#||--4--44--444-4--44--444--0--00--00000000000--|
C#||--4--44--444-2--22--222--0--00--00000000000--|
G#||--2--22--222-------------x--xx--xxxxxxxxxxx--|
D#||-------------------------3--33--33333333333--|



Chorus / Outro
Guitar 1:
D#||--2-----0-----2----5-----2-----0----2-----0-----2----5-----2-----0----|
A#||----3-----3-----3----3-----3-----3----3-----3-----3----3-----3-----3--|
F#||------4-----4----------4-----4----------2-----2----------2-----2------|
C#||----------------------------------------------------------------------|
G#||----------------------------------------------------------------------|
D#||----------------------------------------------------------------------|


D#||--3-----2-----0----2-----0--------------------------------------------|
A#||----0-----0-----0----0-----0---3---5-----3h5-----3---2-----2-----2----|
F#||-------------------------------------2-------2-----2---2-----2-----2--|
C#||------4-----4----------4-----4---------0-------0---------0-----0------|
G#||----------------------------------------------------------------------|
D#||----------------------------------------------------------------------|


D#||--2-----0-----2----5-----2-----0----2-----0-----2----5-----2-----5----|
A#||----3-----3-----3----3-----3-----3----3-----3-----3----3-----3-----3--|
F#||------4-----4----------4-----4----------2-----2----------2-----2------|
C#||----------------------------------------------------------------------|
G#||----------------------------------------------------------------------|
D#||----------------------------------------------------------------------|


D#||--3-----2-----0----2-----0-----------------------------|
A#||----0-----0-----0----0-----0---3---5-----5-----3---2~--|
F#||-------------------------------------2-----2-----2-2~--|
C#||------4-----4----------4-----4---------0-----0---------|
G#||-------------------------------------------------------|
D#||-------------------------------------------------------|


Guitar 2:
D#||---------------------------------------|--------------------------------------|
A#||--33333333----------77777777-----------|--33333333----------2222222222222222--|
F#||--44444444-44444444-77777777-66666666--|--44444444-55555555-2222222222222222--|
C#||--44444444-55555555-77777777-77777777--|--44444444-55555555-2222222222222222--|
G#||--22222222-55555555-55555555-77777777--|--22222222-55555555-0000000000000000--|
D#||-----------33333333----------55555555--|-----------33333333-------------------|


D#||---------------------------------------|--------------------------------|
A#||--33333333----------77777777-----------|--33333333-00000000-222222222~--|
F#||--44444444-44444444-77777777-66666666--|--44444444-00000000-222222222~--|
C#||--44444444-55555555-77777777-77777777--|--44444444-00000000-222222222~--|
G#||--22222222-55555555-55555555-77777777--|--22222222-xxxxxxxx-000000000~--|
D#||-----------33333333----------55555555--|-----------33333333-------------|


Guitar 1/2:
D#||---2~---|
A#||---3~---|
F#||---4~---|
C#||---4~---|
G#||---2~---|
D#||--------|





____________________________________________________________________________________________________

                                   T17.   DANCING ON MY GRAVE
____________________________________________________________________________________________________





Tuning: Half-Step Down (D# G# C# F# A# D#)



Intro
Guitar 1:                        (2)
D#||-------------------------------------|
A#||-------------------------------------|
F#||-------------------------------------|
C#||--2222--22--22-----2222--22--22--22--|
G#||--2222--22--22-----2222--22--22--22--|
D#||--0000--00--00-----0000--00--00--00--|
      ....  ..  ..     ....  ..  ..  ..


Guitar 1/2:                      (1) (2)
D#||-------------------------------------|
A#||-------------------------------------|
F#||-------------------------------------|
C#||--2222--22--22-----2222--22--22--22--|
G#||--2222--22--22-----2222--22--22--22--|
D#||--0000--00--00-----0000--00--00--00--|
      ....  ..  ..     ....  ..  ..  ..


                                 (2) (1)
D#||-------------------------------------|
A#||-------------------------------------|
F#||-------------------------------------|
C#||--2222--22--22-----2222--22--22--22--|
G#||--2222--22--22-----2222--22--22--22--|
D#||--0000--00--00-----0000--00--00--00--|
      ....  ..  ..     ....  ..  ..  ..



Verse
Guitar 1/2:
D#||---------------------------------------------------------------------|
A#||------8--8---8---8----8--8---8---8----7--7---7---7-------------------|
F#||------9--9---9---9----9--9---9---9----7--7---7---7-------------------|
C#||------9--9---9---9----9--9---9---9----7--7---7---7----7--7---7---7---| x2
G#||---7777--7---7---7-7777--7---7---7-5555--5---5---5----7--7---7---7---|
D#||---------------------------------------------------5555--5---5---5---|
       ...             ...             ...             ...


Guitar 1:
D#||---------10~----------10---7-----------------------------------|
A#||------8------------8---------------8--10~--------8--7---8-7----|
F#||--/9------------9--------------/9------------/9-------------7--|
C#||---------------------------------------------------------------|
G#||---------------------------------------------------------------|
D#||---------------------------------------------------------------|


D#||---------10~----------10---7--------------------------------------|
A#||------8------------8---------------8--10~--------8-----7-7---8-8--|
F#||--/9------------9--------------/9------------/9------7------------|
C#||------------------------------------------------------------------|
G#||------------------------------------------------------------------|
D#||------------------------------------------------------------------|


Guitar 2:
D#||---------------------------------------------------------------------|
A#||------8--8---8---8----8--8---8---8----7--7---7---7-------------------|
F#||------9--9---9---9----9--9---9---9----7--7---7---7-------------------|
C#||------9--9---9---9----9--9---9---9----7--7---7---7----7--7---7---7---|
G#||---7777--7---7---7-7777--7---7---7-5555--5---5---5----7--7---7---7---|
D#||---------------------------------------------------5555--5---5---5---|
       ...             ...             ...             ...


D#||-----------------------------------------------------------------------|
A#||------8--8---8---8----8--8---8---8----7--7---7---7---------------------|
F#||------9--9---9---9----9--9---9---9----7--7---7---7---------------------|
C#||------9--9---9---9----9--9---9---9----7--7---7---7----7--7--7-7---7-7--|
G#||---7777--7---7---7-7777--7---7---7-5555--5---5---5----7--7--7-7---7-7--|
D#||---------------------------------------------------5555--5--5-5---5-5--|
       ...             ...             ...             ...



Chorus
Guitar 2:
D#||--------------------------------------------------------------|
A#||--------------------------------------------------------------|
F#||--------5~----------------------9--9--7~----------------------|
C#||--2--2--5~----------------------9--9--7~----------------------|
G#||--2--2--3~----------------------7--7--5~----------------------|
D#||--0--0--------------------------------------------------------|


Guitar 1:
D#||--------------------------------------------------------------|
A#||-----------------------------0--------------------------------|
F#||---------------0---0---0-2-2-----------------0---0-----0-0-2--|
C#||-----------------4---4-------------------------4---4-4--------|
G#||--------------------------------------------------------------|
D#||--------------------------------------------------------------|


Guitar 2:
D#||----------------------------------------|
A#||----------------------------------------|
F#||--7--7--9~------------------------------|
C#||--7--7--9~--------pick------------------|
G#||--5--5--7~-----------slide--------------|
D#||----------------------------------------|


Guitar 1:
D#||----------------------------------------|
A#||-------------------0-----0--------------|
F#||---------------7-----7--------pick------|
C#||-----------------9-----9---------slide--|
G#||----------------------------------------|
D#||----------------------------------------|


Guitar 1/2:
D#||-----------------------------------------|
A#||-----------------------------------------|
F#||--5~-5~--5~--5~--------------------------|
C#||--5~-5~--5~--5~------5~------7-7---7-7---|
G#||--3~-3~--3~--3~------5~------7-7---7-7---|
D#||-------------------333~---33-5-5---5-5---|
                       ..     ..



Verse
Guitar 1/2:
D#||---------------------------------------------------------------------|
A#||------8--8---8---8----8--8---8---8----7--7---7---7-------------------|
F#||------9--9---9---9----9--9---9---9----7--7---7---7-------------------|
C#||------9--9---9---9----9--9---9---9----7--7---7---7----7--7---7---7---| x2
G#||---7777--7---7---7-7777--7---7---7-5555--5---5---5----7--7---7---7---|
D#||---------------------------------------------------5555--5---5---5---|
       ...             ...             ...             ...


Guitar 1:
D#||---------10~----------10---7-----------------------------------|
A#||------8------------8---------------8--10~--------8--7---8-7----|
F#||--/9------------9--------------/9------------/9-------------7--|
C#||---------------------------------------------------------------|
G#||---------------------------------------------------------------|
D#||---------------------------------------------------------------|


D#||---------10~----------10---7--------------------------------------|
A#||------8------------8---------------8--10~--------8-----7-7---8-8--|
F#||--/9------------9--------------/9------------/9------7------------|
C#||------------------------------------------------------------------|
G#||------------------------------------------------------------------|
D#||------------------------------------------------------------------|


Guitar 2:
D#||---------------------------------------------------------------------|
A#||------8--8---8---8----8--8---8---8----7--7---7---7-------------------|
F#||------9--9---9---9----9--9---9---9----7--7---7---7-------------------|
C#||------9--9---9---9----9--9---9---9----7--7---7---7----7--7---7---7---|
G#||---7777--7---7---7-7777--7---7---7-5555--5---5---5----7--7---7---7---|
D#||---------------------------------------------------5555--5---5---5---|
       ...             ...             ...             ...


D#||-----------------------------------------------------------------------|
A#||------8--8---8---8----8--8---8---8----7--7---7---7---------------------|
F#||------9--9---9---9----9--9---9---9----7--7---7---7---------------------|
C#||------9--9---9---9----9--9---9---9----7--7---7---7----7--7--7-7---7-7--|
G#||---7777--7---7---7-7777--7---7---7-5555--5---5---5----7--7--7-7---7-7--|
D#||---------------------------------------------------5555--5--5-5---5-5--|
       ...             ...             ...             ...



Chorus
Guitar 2:
D#||--------------------------------------------------------------|
A#||--------------------------------------------------------------|
F#||--------5~----------------------9--9--7~----------------------|
C#||--2--2--5~----------------------9--9--7~----------------------|
G#||--2--2--3~----------------------7--7--5~----------------------|
D#||--0--0--------------------------------------------------------|


Guitar 1:
D#||--------------------------------------------------------------|
A#||-----------------------------0--------------------------------|
F#||---------------0---0---0-2-2-----------------0---0-----0-0-2--|
C#||-----------------4---4-------------------------4---4-4--------|
G#||--------------------------------------------------------------|
D#||--------------------------------------------------------------|


Guitar 2:
D#||----------------------------------------|
A#||----------------------------------------|
F#||--7--7--9~------------------------------|
C#||--7--7--9~--------pick------------------|
G#||--5--5--7~-----------slide--------------|
D#||----------------------------------------|


Guitar 1:
D#||----------------------------------------|
A#||-------------------0-----0--------------|
F#||---------------7-----7--------pick------|
C#||-----------------9-----9---------slide--|
G#||----------------------------------------|
D#||----------------------------------------|


Guitar 1/2:
D#||-----------------------------------------|
A#||-----------------------------------------|
F#||--5~-5~--5~--5~--------------------------|
C#||--5~-5~--5~--5~------5~------7-7---7-7---|
G#||--3~-3~--3~--3~------5~------7-7---7-7---|
D#||-------------------333~---33-5-5---5-5---|
                       ..     ..



Breakdown
Guitar 1/2:
D#||------------------------------------------------|
A#||------------------------------------------------|
F#||--------------------------5---5~-----7---7~-----|
C#||--2--2--2-----------------5---5~--5--7---7~--7--|
G#||--2--2--2--3p2h5p2h3p2-0--3---3~--5--5---5~--7--|
D#||--0--0--0-------------------------3----------5--|


D#||------------------------------------------------|
A#||------------------------------------------------|
F#||--------------------------5-------5--7----7~----|
C#||--2--2--2-----------------5---5~--5--7----7~----| x2
G#||--2--2--2-----------------3---5~--3--5----5~----|
D#||--0--0--0---------------------3~----------------|



Bridge
Guitar 1:
D#||--------------------------------------------------------------------|
A#||--0-0-8-0-7-0-5-0-7-0-8-0-7-0-5-5--0-0-8-0-7-0-5-0-7-0-8-0-7-0-5-5--|
F#||--------------------------------------------------------------------|
C#||--------------------------------------------------------------------|
G#||--------------------------------------------------------------------|
D#||--------------------------------------------------------------------|


D#||--------------------------------------------------------------------|
A#||------8---7---5---7---8---7---5-5------8---7---5---7---8---7---5-5--|
F#||--5-5---5---5---5---5---5---5------5-5---5---5---5---5---5---5------|
C#||--------------------------------------------------------------------|
G#||--------------------------------------------------------------------|
D#||--------------------------------------------------------------------|


D#||--------------------------------------------------------------------|
A#||------8---7---5---7---8---7---5-5------8---7---5---7---8---7---5-5--|
F#||--7-7---7---7---7---7---7---7------7-7---7---7---7---7---7---7------|
C#||--------------------------------------------------------------------|
G#||--------------------------------------------------------------------|
D#||--------------------------------------------------------------------|


D#||-----------------------------------------------|
A#||--77777777-55555555-88888888-1010101010101010--|
F#||-----------------------------------------------|
C#||-----------------------------------------------|
G#||-----------------------------------------------|
D#||-----------------------------------------------|


D#||--------------------------------------------------------------------|
A#||--0-0-8-0-7-0-5-0-7-0-8-0-7-0-5-5--0-0-8-0-7-0-5-0-7-0-8-0-7-0-5-5--|
F#||--------------------------------------------------------------------|
C#||--------------------------------------------------------------------|
G#||--------------------------------------------------------------------|
D#||--------------------------------------------------------------------|


D#||--------------------------------------------------------------------|
A#||------8---7---5---7---8---7---5-5------8---7---5---7---8---7---5-5--|
F#||--5-5---5---5---5---5---5---5------5-5---5---5---5---5---5---5------|
C#||--------------------------------------------------------------------|
G#||--------------------------------------------------------------------|
D#||--------------------------------------------------------------------|


D#||--------------------------------------------------------------------|
A#||------8---7---5---7---8---7---5-5------8---7---5---7---8---7---5-5--|
F#||--7-7---7---7---7---7---7---7------7-7---7---7---7---7---7---7------|
C#||--------------------------------------------------------------------|
G#||--------------------------------------------------------------------|
D#||--------------------------------------------------------------------|



D#||------------------------|
A#||--77777777-55555555-8~--|
F#||------------------------|
C#||------------------------|
G#||------------------------|
D#||------------------------|


Guitar 2:
D#||--0-0-7-0-5-0-3-0-5-0-7-0-5-0-3-3--0-0-7-0-5-0-3-0-5-0-7-0-5-0-3-3--|
A#||--------------------------------------------------------------------|
F#||--------------------------------------------------------------------|
C#||--------------------------------------------------------------------| x2
G#||--------------------------------------------------------------------|
D#||--------------------------------------------------------------------|


D#||-----------------------------------------------------------------------------|
A#||-7-7-12-7-10-7-8-7-10-7-12-7-10-7-8-8--7-7-12-7-10-7-8-7-10-7-12-7-10-7-8-8--|
F#||-----------------------------------------------------------------------------|
C#||-----------------------------------------------------------------------------|
G#||-----------------------------------------------------------------------------|
D#||-----------------------------------------------------------------------------|


D#||------------------------------|
A#||--77777777-8888-10101010-12~--|
F#||------------------------------|
C#||------------------------------|
G#||------------------------------|
D#||------------------------------|


Guitar 3:
D#||------------------------------------------------------------------------|
A#||------------------------------------------------------------------------|
F#||-------------------5555555555555555------------------77777777-88888888--|
C#||--2222222222222222-5555555555555555-7777777777777777-77777777-88888888--|
G#||--2222222222222222-3333333333333333-7777777777777777-55555555-66666666--|
D#||--0000000000000000------------------5555555555555555--------------------|


D#||------------------------------------------------------------------------|
A#||------------------------------------------------------------------------|
F#||-------------------5555555555555555------------------77777777-8~--------|
C#||--2222222222222222-5555555555555555-7777777777777777-77777777-8~--------|
G#||--2222222222222222-3333333333333333-7777777777777777-55555555-6~--------|
D#||--0000000000000000------------------5555555555555555---------------12\--|



Breakdown
Guitar 1/2:                      (1) (2)
D#||-------------------------------------|
A#||-------------------------------------|
F#||-------------------------------------|
C#||--2222--22--22-----2222--22--22--22--|
G#||--2222--22--22-----2222--22--22--22--|
D#||--0000--00--00-----0000--00--00--00--|
      ....  ..  ..     ....  ..  ..  ..


                                 (2) (1)
D#||-------------------------------------|
A#||-------------------------------------|
F#||-------------------------------------|
C#||--2222--22--22-----2222--22--22--22--|
G#||--2222--22--22-----2222--22--22--22--|
D#||--0000--00--00-----0000--00--00--00--|
      ....  ..  ..     ....  ..  ..  ..


                                 (1) (2)
D#||-------------------------------------|
A#||-------------------------------------|
F#||-------------------------------------|
C#||--2222--22--22-----2222--22--22--22--|
G#||--2222--22--22-----2222--22--22--22--|
D#||--0000--00--00-----0000--00--00--00--|
      ....  ..  ..     ....  ..  ..  ..


                                 (2) (1)
D#||-------------------------------------|
A#||-------------------------------------|
F#||------------------------------5---7--|
C#||--2222--22--22-----2222--22---5---7--|
G#||--2222--22--22-----2222--22---3---5--|
D#||--0000--00--00-----0000--00----------|
      ....  ..  ..     ....  ..



Chorus
Guitar 2:
D#||--------------------------------------------------------------|
A#||--------------------------------------------------------------|
F#||--------5~----------------------9--9--7~----------------------|
C#||--2--2--5~----------------------9--9--7~----------------------|
G#||--2--2--3~----------------------7--7--5~----------------------|
D#||--0--0--------------------------------------------------------|


Guitar 1:
D#||--------------------------------------------------------------|
A#||-----------------------------0--------------------------------|
F#||---------------0---0---0-2-2-----------------0---0-----0-0-2--|
C#||-----------------4---4-------------------------4---4-4--------|
G#||--------------------------------------------------------------|
D#||--------------------------------------------------------------|


Guitar 2:
D#||----------------------------------------|
A#||----------------------------------------|
F#||--7--7--9~------------------------------|
C#||--7--7--9~--------pick------------------|
G#||--5--5--7~-----------slide--------------|
D#||----------------------------------------|


Guitar 1:
D#||----------------------------------------|
A#||-------------------0-----0--------------|
F#||---------------7-----7--------pick------|
C#||-----------------9-----9---------slide--|
G#||----------------------------------------|
D#||----------------------------------------|


Guitar 1/2:
D#||----------------------------------------|
A#||----------------------------------------|
F#||--5~-5~--5~--5~-------------------------|
C#||--5~-5~--5~--5~------5~------77777777---|
G#||--3~-3~--3~--3~------5~------77777777---|
D#||-------------------333~---33-55555555---|
                       ..     ..



Chorus / Outro
Guitar 2:
D#||-----------------------------------------------------------------------|
A#||-----------------------------------------------------------------------|
F#||----------5~-------------------------9--9--9-5~------------------------|
C#||--2--2--2-5~-------------------------9--9--9-5~------------------------|
G#||--2--2--2-3~-------------------------7--7--7-3~------------------------|
D#||--0--0--0--------------------------------------------------------------|
      .  .  .                            .  .  .

Guitar 1:
D#||-----------------------------------------------------------------------|
A#||-----------------------------------------------------------------------|
F#||----------7~/9-9-9-7/9-9-9-7/-9-9-9----------7/9-9-9-7/9-9-9-7/-9-9-9--|
C#||-----------------------------------------------------------------------|
G#||-----------------------------------------------------------------------|
D#||-----------------------------------------------------------------------|


Guitar 2:
D#||---------------------------------------|
A#||---------------------------------------|
F#||--7--7--9~-----------------------------|
C#||--7--7--9~------------------pick-------|
G#||--5--5--7~---------------------slide---|
D#||---------------------------------------|
      .  .

Guitar 1:
D#||---------------------------------------|
A#||--------7~--8-8-8-7-8-8-8-7-8-8-8------|
F#||--------9~--9-9-9-9-9-9-9-9-9-9-9------|
C#||---------------------------------------|
G#||---------------------------------------|
D#||---------------------------------------|


Guitar 1:
D#||--7---7---7---7-7--------------------------|
A#||--8---8---8---8-8----10~-----7~------------|
F#||--9---9---9---9-9----9-~-----9~------7/9~--|
C#||-------------------------------------------|
G#||-------------------------------------------|
D#||-------------------------------------------|


Guitar 2:
D#||-------------------------------------------|
A#||-------------------------------------------|
F#||--5~-5~--5~--5~----------------------------|
C#||--5~-5~--5~--5~------5~------7~------2~----|
G#||--3~-3~--3~--3~------5~------7~------2~----|
D#||-------------------333~------5~------0~----|
                       ..





____________________________________________________________________________________________________

                                  T18.   REPLACE YOU (ACOUSTIC)
____________________________________________________________________________________________________





Tuning: Half-Step Down (D# G# C# F# A# D#)



**CAPO - 4th Fret**



Intro
Acoustic 1:
D#||--------0-------------------0---------|
A#||-----------7-------------------7------|
F#||--------------7-------------------7---|
C#||------5-------------------5-----------|
G#||----7-------------------7-------------|
D#||--0-------------------0---------------|


D#||--------0-------------------0---------|
A#||-----------3-------------------3------|
F#||------5-------5-----------5-------5---| x2
C#||----5-------------------5-------------|
G#||--3-------------------3---------------|
D#||--------------------------------------|


Acoustic 2:
D#||--3333---333---3333333--3333---333---3333333--3333---333---3333333--3333---333--3333---333--|
A#||--3333---333---3333333--3333---333---3333333--3333---333---3333333--3333---333--3333---333--|
F#||--0000---000---0000000--0000---000---0000000--0000---000---0000000--0000---000--0000---000--|
C#||--xxxx---xxx---xxxxxxx--xxxx---xxx---xxxxxxx--xxxx---xxx---xxxxxxx--xxxx---xxx--0000---000--|
G#||--2222---222---2222222--2222---222---2222222--3333---333---3333333--3333---333--xxxx---xxx--|
D#||--0000---000---0000000--0000---000---0000000------------------------------------3333---333--|



Verse
Acoustic 1:
D#||--33333333----3333333--33333333----3333333--|--33333333----3333333--33333333----2222222---|
A#||--33333333----3333333--33333333----3333333--|--33333333----3333333--33333333----3333333---|
F#||--00000000----0000000--00000000----0000000--|--00000000----0000000--00000000----2222222---| x2
C#||--xxxxxxxx----xxxxxxx--00000000----0000000--|--xxxxxxxx----xxxxxxx--00000000----0000000---|
G#||--22222222----3333333--xxxxxxxx----xxxxxxx--|--22222222----3333333--xxxxxxxx----0000000---|
D#||--00000000-------------33333333----2222222--|--00000000-------------33333333----0000000---|


Acoustic 2:
D#||-------------7------------------10-----7---7---7---10-7------------------------|
A#||-8---8---8-----8-------8---8-------------8---8---8----------7-7-7-8-7---7-(8)--|
F#||---9---9---9---------7---7---7----------------------------------------9--------| x2
C#||-------------------------------------------------------------------------------|
G#||-------------------------------------------------------------------------------|
D#||-------------------------------------------------------------------------------|



Pre-Chorus
Acoustic 1/2:
D#||-3~----------------333--3~----------------333--|
A#||-3~-------------333333--3~-------------333333--|
F#||-x~----------xxxxxxxxx--0~----------000000000--|
C#||-2~-------222222222222--x~-------xxxxxxxxxxxx--|
G#||-0~---0000000000000000--3~---3333333333333333--|
D#||-----------------------------------------------|



Chorus
Acoustic 1:
D#||--2--2--222-3--33--3333-3--3--3333--333--333--|--2--2--222-3--33--3333-3--3--3333-33333333--|
A#||--3--3--333-3--33--3333-3--3--3333--333--333--|--3--3--333-3--33--3333-3--3--3333-33333333--|
F#||--2--2--222-x--xx--xxxx-0--0--0000--000--000--|--2--2--222-x--xx--xxxx-0--0--0000-00000000--|
C#||--0--0--000-2--22--2222-x--x--xxxx--xxx--xxx--|--0--0--000-2--22--2222-x--x--xxxx-00000000--|
G#||--0--0--000-2--22--2222-3--3--3333--333--333--|--0--0--000-2--22--2222-3--3--3333-xxxxxxxx--|
D#||----------------------------------------------|-----------------------------------33332222--|


D#||--2--2--222-3--33--3333-3--3--3333--333--333--|--2--2--222-3--33--3333-3--3--3333-333-3-3333--|
A#||--3--3--333-3--33--3333-3--3--3333--333--333--|--3--3--333-3--33--3333-3--3--3333-333-3-3333--|
F#||--2--2--222-x--xx--xxxx-0--0--0000--000--000--|--2--2--222-x--xx--xxxx-0--0--0000-000-0-0000--|
C#||--0--0--000-2--22--2222-x--x--xxxx--xxx--xxx--|--0--0--000-2--22--2222-x--x--xxxx-000-0-0000--|
G#||--0--0--000-2--22--2222-3--3--3333--333--333--|--0--0--000-2--22--2222-3--3--3333-xxx-x-xxxx--|
D#||----------------------------------------------|-----------------------------------333-3-3333--|


Acoustic 2:
D#||-----------------------------------------------------|
A#||--------------0-----------0---5--5--555--------------|
F#||----------0-----00--0---0---0-----------7--77-5--55--| x2
C#||--7--7--7---7---------7------------------------------|
G#||-----------------------------------------------------|
D#||-----------------------------------------------------|



Verse
Acoustic 1:
D#||--33333333----3333333--33333333----3333333--|--33333333----3333333--33333333----2222222---|
A#||--33333333----3333333--33333333----3333333--|--33333333----3333333--33333333----3333333---|
F#||--00000000----0000000--00000000----0000000--|--00000000----0000000--00000000----2222222---| x2
C#||--xxxxxxxx----xxxxxxx--00000000----0000000--|--xxxxxxxx----xxxxxxx--00000000----0000000---|
G#||--22222222----3333333--xxxxxxxx----xxxxxxx--|--22222222----3333333--xxxxxxxx----0000000---|
D#||--00000000-------------33333333----2222222--|--00000000-------------33333333----0000000---|


Acoustic 2:
D#||-------------7------------------10-----7---7---7---10-7------------------------|
A#||-8---8---8-----8-------8---8-------------8---8---8----------7-7-7-8-7---7-(8)--|
F#||---9---9---9---------7---7---7----------------------------------------9--------| x2
C#||-------------------------------------------------------------------------------|
G#||-------------------------------------------------------------------------------|
D#||-------------------------------------------------------------------------------|



Pre-Chorus
Acoustic 1/2:
D#||-3~----------------333--3~----------------333--|
A#||-3~-------------333333--3~-------------333333--|
F#||-x~----------xxxxxxxxx--0~----------000000000--|
C#||-2~-------222222222222--x~-------xxxxxxxxxxxx--|
G#||-0~---0000000000000000--3~---3333333333333333--|
D#||-----------------------------------------------|



Chorus
Acoustic 1:
D#||--2--2--222-3--33--3333-3--3--3333--333--333--|--2--2--222-3--33--3333-3--3--3333-33333333--|
A#||--3--3--333-3--33--3333-3--3--3333--333--333--|--3--3--333-3--33--3333-3--3--3333-33333333--|
F#||--2--2--222-x--xx--xxxx-0--0--0000--000--000--|--2--2--222-x--xx--xxxx-0--0--0000-00000000--|
C#||--0--0--000-2--22--2222-x--x--xxxx--xxx--xxx--|--0--0--000-2--22--2222-x--x--xxxx-00000000--|
G#||--0--0--000-2--22--2222-3--3--3333--333--333--|--0--0--000-2--22--2222-3--3--3333-xxxxxxxx--|
D#||----------------------------------------------|-----------------------------------33332222--|


D#||--2--2--222-3--33--3333-3--3--3333--333--333--|--2--2--222-3--33--3333-3--3--3333-333-3-3333--|
A#||--3--3--333-3--33--3333-3--3--3333--333--333--|--3--3--333-3--33--3333-3--3--3333-333-3-3333--|
F#||--2--2--222-x--xx--xxxx-0--0--0000--000--000--|--2--2--222-x--xx--xxxx-0--0--0000-000-0-0000--|
C#||--0--0--000-2--22--2222-x--x--xxxx--xxx--xxx--|--0--0--000-2--22--2222-x--x--xxxx-000-0-0000--|
G#||--0--0--000-2--22--2222-3--3--3333--333--333--|--0--0--000-2--22--2222-3--3--3333-xxx-x-xxxx--|
D#||----------------------------------------------|-----------------------------------333-3-3333--|


Acoustic 2:
D#||-----------------------------------------------------|
A#||--------------0-----------0---5--5--555--------------|
F#||----------0-----00--0---0---0-----------7--77-5--55--| x2
C#||--7--7--7---7---------7------------------------------|
G#||-----------------------------------------------------|
D#||-----------------------------------------------------|



Interlude
Acoustic 1:
D#||--------0-------------------0---------|
A#||-----------7-------------------7------|
F#||--------------7-------------------7---|
C#||------5-------------------5-----------|
G#||----7-------------------7-------------|
D#||--0-------------------0---------------|


D#||--------0-------------------0---------|
A#||-----------3-------------------3------|
F#||------5-------5-----------5-------5---| x2
C#||----5-------------------5-------------|
G#||--3-------------------3---------------|
D#||--------------------------------------|


Acoustic 2:
D#||--333~----------333~----------3~----------3-------------33---|
A#||--333~----------333~----------3~----------3------------333---|
F#||--000~----------000~----------0~----------0----------00000---|
C#||--xxx~----------xxx~----------x~----------x--------xxxxxxx---|
G#||--222~----------222~----------3~----------3-----3333333333---|
D#||--000~----------000~-----------------------------------------|



Bridge
Acoustic 1/2:
D#||---------------------------------------------------------------------|
A#||---------------------------------------------------------------------|
F#||---------------------------------------------------------------------|
C#||---5-5-5-5-5-5-5-5-----------------2-2-2-2-2-2-2-2-2-2-2-2-2-2-2-2---|
G#||---5-5-5-5-5-5-5-5-2-2-2-2-2-2-2-2-3-3-3-3-3-3-3-3-3-3-3-3-3-3-3-3---|
D#||-------------------0-0-0-0-0-0-0-0-----------------------------------|
       . . . . . . . . . . . . . . . . . . . . . . . . . . . . . . . .


D#||------------------------------------333~-----33333333---|
A#||------------------------------------333~-----33333333---|
F#||------------------------------------000~-----00000000---|
C#||---5-5-5-5-5-5-5-5------------------xxx~-----00000000---|
G#||---5-5-5-5-5-5-5-5-2-2-2-2-2-2-2-2--333~-----xxxxxxxx---|
D#||-------------------0-0-0-0-0-0-0-0-----------33332222---|
       . . . . . . . . . . . . . . . .



Chorus
Acoustic 1:
D#||--2--2--222-3--33--3333-3--3--3333--333--333--|--2--2--222-3--33--3333-3--3--3333-3333-3333--|
A#||--3--3--333-3--33--3333-3--3--3333--333--333--|--3--3--333-3--33--3333-3--3--3333-3333-3333--|
F#||--2--2--222-x--xx--xxxx-0--0--0000--000--000--|--2--2--222-x--xx--xxxx-0--0--0000-0000-0000--|
C#||--0--0--000-2--22--2222-x--x--xxxx--xxx--xxx--|--0--0--000-2--22--2222-x--x--xxxx-0000-0000--|
G#||--0--0--000-2--22--2222-3--3--3333--333--333--|--0--0--000-2--22--2222-3--3--3333-3333-3333--|
D#||----------------------------------------------|----------------------------------------------|


D#||--2--2--222-3--33--3333-3--3--3333--333--333--|--2--2--222-3--33--3333-3--3--3333-33333333--|
A#||--3--3--333-3--33--3333-3--3--3333--333--333--|--3--3--333-3--33--3333-3--3--3333-33333333--|
F#||--2--2--222-x--xx--xxxx-0--0--0000--000--000--|--2--2--222-x--xx--xxxx-0--0--0000-00000000--|
C#||--0--0--000-2--22--2222-x--x--xxxx--xxx--xxx--|--0--0--000-2--22--2222-x--x--xxxx-00000000--|
G#||--0--0--000-2--22--2222-3--3--3333--333--333--|--0--0--000-2--22--2222-3--3--3333-xxxxxxxx--|
D#||----------------------------------------------|-----------------------------------33332222--|


D#||--2--2--222-3--33--3333-3--3--3333--333--333--|--2--2--222-3--33--3333-3333-3333-3333-3333--|
A#||--3--3--333-3--33--3333-3--3--3333--333--333--|--3--3--333-3--33--3333-3333-3333-3333-3333--|
F#||--2--2--222-x--xx--xxxx-0--0--0000--000--000--|--2--2--222-x--xx--xxxx-0000-0000-0000-0000--|
C#||--0--0--000-2--22--2222-x--x--xxxx--xxx--xxx--|--0--0--000-2--22--2222-xxxx-xxxx-0000-0000--|
G#||--0--0--000-2--22--2222-3--3--3333--333--333--|--0--0--000-2--22--2222-3333-3333-3333-3333--|
D#||----------------------------------------------|---------------------------------------------|



Acoustic 2:
D#||-----------------------------------------------------|
A#||--------------0-----------0---5--5--555--------------|
F#||----------0-----00--0---0---0-----------7--77-5--55--| (listen for when to come in)
C#||--7--7--7---7---------7------------------------------|
G#||-----------------------------------------------------|
D#||-----------------------------------------------------|


D#||--------------------------------------------------|
A#||--------------0-----------0---5-5-5-5-------------|
F#||----------0-----00--0---0---0---------7-7-7-7-7---|
C#||--7--7--7---7---------7---------------------------|
G#||--------------------------------------------------|
D#||--------------------------------------------------|



Outro
Acoustic 1:
D#||---2~-------3~-------0~---|
A#||---3~-------3~-------3~---|
F#||---2~-------x~-------0~---|
C#||---0~-------2~-------x~---|
G#||---0~-------2~-------3~---|
D#||--------------------------|





Tablature Legend
----------------
 h   hammer-on
 p   pull-off
 b   bend
 pb  pre-bend
 r   release bend
 ~   hold / vibrato
 .   palm mute
 /   slide up
 \   slide down
 *   pinch harmonic
 '   natural harmonic
 x   mute note
 T   tap
comments
We did not receive enough feedback on this tab! Please rate:
1 2 3 4 5
I want to post or [tab]
guest
You may want to rate the tab now too:
select rating
Please do not post tabs as comments. Select "correction" instead!