Oops, an error
Loading. Please wait.

Sound Of The Sun Tab

ver3
ver3

Whole song

More versions @911Tabs.com
1,173 views 1 this week
2 commentsread comments
1 2 3 4 5
accurate
x 4
Autoscroll
+/-
esc
set tempo
stop
Difficulty
Tuning
novice
C# G# C# F# A# D#
WARNING: You are trying to view
                                    content from Ultimate-Guitar.com
                                    in an unauthorized application,
                                    which is prohibited.

                                    Please use an official Ultimate
                                    Guitar Tabs application for iPhone,
                                    iPad or Android to access legitimate
                                    chords, guitar, bass, and drum tabs
                                    from Ultimate-Guitar.com database.

                                    Type "ultimate guitar tabs" in Apple
                                    App Store's or Android Market's
                                    search to find the application.
-------------------------------------------------------------------------------
                             SOUND OF THE SUN- Silverstein
-------------------------------------------------------------------------------
Tabbed by: Anthony Lapila
Email: ajlapila@comcast.net

Tuning:Drop Db (eb Bb Gb Db Ab Db)

INTRO pt.1
eb|--------------------------------------------------------------------------|
Bb|--------------------------------------------------------------------------|
Gb|--------------------------------------------------------------------------|
Db|-----4~----0~----2~------4~----0~---2222222---9-9----2-2------------------|
Ab|-----4~----0~----2~------4~----0~---2222222---9-9----2-2------------------|
Db|-----4~----0~----2~------4~----0~---2222222---9-9----2-2------------------|           
                             .......

INTRO pt.2
eb|--------------------------------------------------------------------------|
Bb|--------------------------------------------------------------------------|
Gb|--------------------------------------------------------------------------|
Db|----4----44444----------------0-00000----------------4-44444--------------|
Ab|----4----44444----------------0-00000----------------4-44444--------------|
Db|----4----44444--4/7-6-4-6-4-2-0-00000--0/9-7-6-7-6-2-4-44444--------------|
.....                  .....                  .....

eb|-----------------------------------------------------------------------------|
Bb|-----------------------------------------------------------------------------|
Gb|-----------------------------------------------------------------------------|
Db|----------------9-9-9-99--12-12-12-12/14---4~--------------------------------|
Ab|----------------9-9-9-99--12-12-12-12/14---4~--------------------------------|
Db|--4/7-6-4-6-4-2-9-9-9-99--12-12-12-12/14---4~--------------------------------|

VERSE Pt. 1 (x2)
eb|----------------------------------------------------------------------------|
Bb|------10-10-9-9-10-10-12-12-10-10-9-9-10h12--x------------------------------|
Gb|-------7--7-7-7--7--7--7--7--7--7-7-7--7--7--x------------------------------|
Db|-------0--0-0-0--0--0--0--0--0--0-0-0--0--0--x------------------------------|
Ab|----------------------------------------------------------------------------|
Db|----------------------------------------------------------------------------|

Verse Pt. 1 Ending (after 2nd time only)
eb|--------------------------------------------------------------------------|
Bb|--10-10-10-1010--x--10-10-10-1010--x-12-12-12-1212--x-12-12-12-1212--x----|
Gb|---7--7--7--7-7--x---7--7--7--7-7--x--7--7--7--7-7--x--7--7--7--7-7--x----|
Db|---0--0--0--0-0--x---0--0--0--0-0--x--0--0--0--0-0--x--0--0--0--0-0--x----|
Ab|--------------------------------------------------------------------------|
Db|--------------------------------------------------------------------------|

VERSE Pt. 2
eb|--------------------------------------------------------------------------|
Bb|--------------------------------------------------------------------------|
Gb|--------------------------------------------------------------------------|
Db|--4-444444444444-222-0000000000000000-7777777777777777-66666666\22222222--|
Ab|--4-444444444444-222-0000000000000000-7777777777777777-66666666\22222222--|
Db|--4-444444444444-222-0000000000000000-7777777777777777-66666666\22222222--|
... ................ ................ .................

PRE-CHORUS
eb|--------------------------------------------------------------------------|
Bb|--------------------------------------------------------------------------|
Gb|--6h7---6h7---------------------------------------------------------------|
Db|--0~--7-----7--0000000000000000-------------------------------------------|
Ab|--0~-----------0000000000000000-------------------------------------------|
Db|--0~-----------0000000000000000-------------------------------------------|           
      ................

CHORUS
eb|--------------------------------------------------------------------------|
Bb|--------------------------------------------------------------------------|
Gb|--------------------------------------------------------------------------|
Db|-4444444444444444/7777777777777777/9999999999999999\0000000022222222------|
Ab|-4444444444444444/7777777777777777/9999999999999999\0000000022222222------|
Db|-4444444444444444/7777777777777777/9999999999999999\0000000022222222------|

eb|--------------------------------------------------------------------------|
Bb|--------------------------------------------------------------------------|
Gb|--------------------------------------------------------------------------|
Db|-4444444444444444/7777777777777777/9999999999999999\00000000-9-9-2-2------|
Ab|-4444444444444444/7777777777777777/9999999999999999\00000000-9-9-2-2------|
Db|-4444444444444444/7777777777777777/9999999999999999\00000000-9-9-2-2------|

POST CHORUS(same as intro pt.2)
eb|--------------------------------------------------------------------------|
Bb|--------------------------------------------------------------------------|
Gb|--------------------------------------------------------------------------|
Db|----4----44444----------------0-00000----------------4-44444--------------|
Ab|----4----44444----------------0-00000----------------4-44444--------------|
Db|----4----44444--4/7-6-4-6-4-2-0-00000--0/9-7-6-7-6-2-4-44444--------------|
.....                  .....                  .....

eb|--------------------------------------------------------------------------|
Bb|--------------------------------------------------------------------------|
Gb|--------------------------------------------------------------------------|
Db|----------------9-9-9-99--12-12-12-12/14---4~-----------------------------|
Ab|----------------9-9-9-99--12-12-12-12/14---4~-----------------------------|
Db|--4/7-6-4-6-4-2-9-9-9-99--12-12-12-12/14---4~-----------------------------|

VERSE 2 (Same as first verse)

VERSE Pt. 1 (x2)
eb|----------------------------------------------------------------------------|
Bb|------10-10-9-9-10-10-12-12-10-10-9-9-10h12--x------------------------------|
Gb|-------7--7-7-7--7--7--7--7--7--7-7-7--7--7--x------------------------------|
Db|-------0--0-0-0--0--0--0--0--0--0-0-0--0--0--x------------------------------|
Ab|----------------------------------------------------------------------------|
Db|----------------------------------------------------------------------------|

Verse Pt. 1 Ending (after 2nd time only)
eb|--------------------------------------------------------------------------|
Bb|--10-10-10-1010--x--10-10-10-1010--x-12-12-12-1212--x-12-12-12-1212--x----|
Gb|---7--7--7--7-7--x---7--7--7--7-7--x--7--7--7--7-7--x--7--7--7--7-7--x----|
Db|---0--0--0--0-0--x---0--0--0--0-0--x--0--0--0--0-0--x--0--0--0--0-0--x----|
Ab|--------------------------------------------------------------------------|
Db|--------------------------------------------------------------------------|

VERSE Pt. 2
eb|--------------------------------------------------------------------------|
Bb|--------------------------------------------------------------------------|
Gb|--------------------------------------------------------------------------|
Db|--4-444444444444-222-0000000000000000-7777777777777777-66666666\22222222--|
Ab|--4-444444444444-222-0000000000000000-7777777777777777-66666666\22222222--|
Db|--4-444444444444-222-0000000000000000-7777777777777777-66666666\22222222--|
... ................ ................ .................

PRE-CHORUS
eb|--------------------------------------------------------------------------|
Bb|--------------------------------------------------------------------------|
Gb|--6h7---6h7---------------------------------------------------------------|
Db|--0~--7-----7--0000000000000000-------------------------------------------|
Ab|--0~-----------0000000000000000-------------------------------------------|
Db|--0~-----------0000000000000000-------------------------------------------|           
      ................

CHORUS
eb|--------------------------------------------------------------------------|
Bb|--------------------------------------------------------------------------|
Gb|--------------------------------------------------------------------------|
Db|-4444444444444444/7777777777777777/9999999999999999\0000000022222222------|
Ab|-4444444444444444/7777777777777777/9999999999999999\0000000022222222------|
Db|-4444444444444444/7777777777777777/9999999999999999\0000000022222222------|

eb|--------------------------------------------------------------------------|
Bb|--------------------------------------------------------------------------|
Gb|--------------------------------------------------------------------------|
Db|-4444444444444444/7777777777777777/9999999999999999\00000000/22222222-----|
Ab|-4444444444444444/7777777777777777/9999999999999999\00000000/22222222-----|
Db|-4444444444444444/7777777777777777/9999999999999999\00000000/22222222-----|

Breakdown
eb|--------------------------------------------------------------------------|
Bb|--------------------------------------------------------------------------|
Gb|--------------------------------------------------------------------------|
Db|-----4~----0~----2~------4~----0~---2222222-------------------------------|
Ab|-----4~----0~----2~------4~----0~---2222222-------------------------------|
Db|-----4~----0~----2~------4~----0~---2222222--4h7/9h11p9\7p6h7-------------|           
                           .......

eb|------------------------------------------------------------------------------------|
Bb|------------------------------------------------------------------------------------|
Gb|------------------------------------------------------------------------------------|
Db|-4-4--4-4~-------------2h4-0-0--0-0~-------------2~---------------------------------|
Ab|-4-4--4-4~-------------2h4-0-0--0-0~-------------2~---------------------------------|
Db|-4-4--4-4~-4/7-6-4-6-4-2h4-0-0--0-0~-0/9-7-6-7-6-2~-----------------------|    . . -| 
                 . .  .

eb|--------------------------------------------------------------------------|
Bb|--------------------------------------------------------------------------|
Gb|--------------------------------------------------------------------------|
Db|-4-4--4-4~--------------2h4--9-9--9-9~--12-12--12-12~---------------------|
Ab|-4-4--4-4~--------------2h4--9-9--9-9~--12-12--12-12~---------------------|
Db|-4-4--4-4~--4/7-6-4-6-4-2h4--9-9--9-9~--12-12--12-12~---------------------|    . .  . 
                    . .  .      .  .   .


eb|------------------------------------------------------------------------------------|
Bb|------------------------------------------------------------------------------------|
Gb|------------------------------------------------------------------------------------|
Db|-4-4--4-4~-------------2h4-0-0--0-0~-------------2~---------------------------------|
Ab|-4-4--4-4~-------------2h4-0-0--0-0~-------------2~---------------------------------|
Db|-4-4--4-4~-4/7-6-4-6-4-2h4-0-0--0-0~-0/9-7-6-7-6-2~-----------------------|    . . -| 
                 . .  .

eb|--------------------------------------------------------------------------|
Bb|--------------------------------------------------------------------------|
Gb|--------------------------------------------------------------------------|
Db|-4-4--4-4~--------------2h4--9-9--9-9~-12-12-12-14-14-14------------------|
Ab|-4-4--4-4~--------------2h4--9-9--9-9~-12-12-12-14-14-14------------------|
Db|-4-4--4-4~--4/7-6-4-6-4-2h4--9-9--9-9~-12-12-12-14-14-14------------------|    . .  .
                    . .  .     .  .  .  .  .  .
                                             (Triplets)

PRE-CHORUS
eb|--------------------------------------------------------------------------|
Bb|--------------------------------------------------------------------------|
Gb|--6h7---6h7---------------------------------------------------------------|
Db|--0~--7-----7--00000000000000000000000000000000---------------------------|
Ab|--0~-----------00000000000000000000000000000000---------------------------|
Db|--0~-----------00000000000000000000000000000000---------------------------|           
      ................................

CHORUS
eb|--------------------------------------------------------------------------|
Bb|--------------------------------------------------------------------------|
Gb|--------------------------------------------------------------------------|
Db|-4444444444444444/7777777777777777/9999999999999999\0000000022222222------|
Ab|-4444444444444444/7777777777777777/9999999999999999\0000000022222222------|
Db|-4444444444444444/7777777777777777/9999999999999999\0000000022222222------|

eb|--------------------------------------------------------------------------|
Bb|--------------------------------------------------------------------------|
Gb|--------------------------------------------------------------------------|
Db|-4444444444444444/7777777777777777/9999999999999999\00000000-9-9-2-2-4\---|
Ab|-4444444444444444/7777777777777777/9999999999999999\00000000-9-9-2-2-4\---|
Db|-4444444444444444/7777777777777777/9999999999999999\00000000-9-9-2-2-4\---|


| /  slide up
| \  slide down
| h  hammer-on
| p  pull-off
| ~  let ring
| +  harmonic
| x  Mute note
===============================================================================
2 comments total.
0 reply
Jules24 wrote on July 9 2007, 02:06 pm

the only parts that look ok are the intro and the breakdown

0 reply
les paul 8300 wrote on January 16 2008, 10:17 pm

overall its pretty good. the chorus is wrong and needs lots of extra notes and the chords are wrong.

I want to post or [tab]
guest
You may want to rate the tab now too:
select rating
Please do not post tabs as comments. Select "correction" instead!