Oops, an error
Loading. Please wait.

Sound Of The Sun Tab

ver5
ver5

Whole song

More versions @911Tabs.com
1,518 views 6 this week
no commentswrite comment
1 2 3 4 5
excellent!
x 2
Autoscroll
+/-
esc
set tempo
stop
Contributor
Difficulty
Tuning
intermediate
C# G# C# F# A# D#
WARNING: You are trying to view
                                    content from Ultimate-Guitar.com
                                    in an unauthorized application,
                                    which is prohibited.

                                    Please use an official Ultimate
                                    Guitar Tabs application for iPhone,
                                    iPad or Android to access legitimate
                                    chords, guitar, bass, and drum tabs
                                    from Ultimate-Guitar.com database.

                                    Type "ultimate guitar tabs" in Apple
                                    App Store's or Android Market's
                                    search to find the application.
Tabbed by: Joshua Garcia (joshuag523@aol.com)

Tabs for the song: Sound of the Sun by Silverstein
Please rate and let me know if you have any corrections. Thank you.

None of the other tabs for this song seemed to be accurate or were missing 
the lead or rhythm guitar, so here's mine. I assure you this is as accurate
as it gets.


Tuning: Drop C# (C# G# C# F# A# D#)


Intro
Guitar 1:
D#||-------------------------------------------------------------------------------------------|
A#||-10-10-9--9--10-10-12-12-10-10-9--9--10-10-12-12--12-12-12-12-12-12-12-12-9-9-9-9-9-9-9-9--|
F#||-11-11-11-11-11-11-11-11-11-11-11-11-11-11-11-11--9--9--9--9--9--9--9--9--9-9-9-9-9-9-9-9--|
C#||-------------------------------------------------------------------------------------------|
G#||-------------------------------------------------------------------------------------------|
C#||-------------------------------------------------------------------------------------------|


D#||--------------------------------------------------|
A#||-10-10-9--9--10-10-12-12-10-10-9--9--10-10-12-12--|
F#||-11-11-11-11-11-11-11-11-11-11-11-11-11-11-11-11--|
C#||--------------------------------------------------|
G#||--------------------------------------------------|
C#||--------------------------------------------------|


Guitar 2:
D#||----------------------------------------------------------|
A#||----------------------------------------------------------|
F#||----------------------------------------------------------|
C#||--4~-----0~-----2~----------4~-----0~---------------------|
G#||--4~-----0~-----2~----------4~-----0~---------------------|
C#||--4~-----0~-----2~----------4~-----0~-----2-2-2-2-2-2-2---|
                                              . . . . . . .

Pre-Verse
Guitar 1/2:
D#||-------------------------------------------------------------------------|
A#||-------------------------------------------------------------------------|
F#||--4-4--------------------------------------------------------------------|
C#||--4-4---2-2---4----------4-----------------0-0--------0------------------|
G#||--2-2---2-2---4----------4-----------------0-0--------0------------------|
C#||--------2-2---4--4-4-4-4-4---7--6-4-6--4-2-0-0--0-0-0-0---9--7-6-7--6-2--|
                     . . . .                        . . .

D#||---------------------------------------------------|
A#||---------------------------------------------------|
F#||---------------------------------------------------|
C#||--4-4--------4-----------------4-44-4444/7-77-7/9--|
G#||--4-4--------4-----------------2-22-2222/5-55-5/7--|
C#||--4-4--4-4-4-4---7--6-4-6--4-2---------------------|
           . . .



Verse
Guitar 1:
D#||-------------------------------------------------|---------------------------|
A#||-10--10-9--9--10-10-12-12-10-10-9--9--10-12------|--10--10-10-10-10-12-------|
F#||-11--11-11-11-11-11-11-11-11-11-11-11-11-11--x2--|--9---9--9--9--9--9---x2---|
C#||-------------------------------------------------|---------------------------|
G#||-------------------------------------------------|---------------------------|
C#||-------------------------------------------------|---------------------------|


D#||--------------------------------------|
A#||--9--9-9-9-9-10---9--9-9-9-10-9-9-10--|
F#||--9--9-9-9-9-9----9--9-9-9-9--9-9-9---|
C#||--------------------------------------|
G#||--------------------------------------|
C#||--------------------------------------|


Guitar 2:
D#||---------------------------------------------------------------------|
A#||---------------------------------------------------------------------|
F#||---------------------------------------------------------------------|
C#||-11~-------11--12~-------12--7~---------7--6~-----6--2------2-2-2-2--|
G#||-9~--------9---9~--------9---7~---------7--6~-----6--2------2-2-2-2--|
C#||-----------------------------7~---------7--6~-----6--2------2-2-2-2--|


Guitar 1/2:
D#||--------------------------------------------------------------|
A#||--------------------------------------------------------------|
F#||--------------------------------------------------------------|
C#||-4-4-4-4-4-4-4-4-4-4-4-4-4--2-2-2--0-0-0-0-0-0-0-0-0-0-0-0-0--|
G#||-4-4-4-4-4-4-4-4-4-4-4-4-4--2-2-2--0-0-0-0-0-0-0-0-0-0-0-0-0--|
C#||-4-4-4-4-4-4-4-4-4-4-4-4-4--2-2-2--0-0-0-0-0-0-0-0-0-0-0-0-0--|
     . . . . . . . . . . . . .         . . . . . . . . . . . . .


D#||-------------------------------------------------------------------------------------|
A#||-10-10-10------------10-10-10-----------10-10-10-----------10-10-10------------------|
F#||-9--9--9-------------9--9--9------------9--9--9------------9--9--9-------------------|
C#||----------7-7-7-7-7-----------7-7-7-7-7----------6-6-6-6-6----------2-2-2-2-2-2-2-2--|
G#||----------7-7-7-7-7-----------7-7-7-7-7----------6-6-6-6-6----------2-2-2-2-2-2-2-2--|
C#||----------7-7-7-7-7-----------7-7-7-7-7----------6-6-6-6-6----------2-2-2-2-2-2-2-2--|
              . . . . .           . . . . .          . . . . .          . . . . . . . .



Pre-Chorus
Guitar 1:
D#||-----------------------------|
A#||-----------------------------|
F#||--/7---6\---2---/7---6\---2--|
C#||-----------------------------|
G#||-----------------------------|
C#||-----------------------------|


Guitar 2:
D#||------------|------------------------------------|
A#||------------|------------------------------------|
F#||-----4~-----|------------------------------------|
C#||-----4~-----|--0-0-0-0-0-0-0-0-0-0-0-0-0-0-0-0---|
G#||-----2~-----|--0-0-0-0-0-0-0-0-0-0-0-0-0-0-0-0---|
C#||------------|--0-0-0-0-0-0-0-0-0-0-0-0-0-0-0-0---|
                   . . . . . . . . . . . .



Chorus
Guitar 1:
D#||------------------------------------------------------------------------------------------|
A#||------------------------------------------------------------------------------------------|
F#||-11-11-13-13-14-14-16-16-14-14-13-13-11-11-13-13-9-9-9-9-9-9-9-9-14-14-14-14-14-14-14-14--|
C#||-x--x--x--x--x--x--x--x--x--x--x--x--x--x--x--x--x-x-x-x-x-x-x-x-x--x--x--x--x--x--x--x---|
G#||-9--9--11-11-12-12-14-14-12-12-11-11-9--9--11-11-7-7-7-7-7-7-7-7-12-12-12-12-12-12-12-12--|
C#||------------------------------------------------------------------------------------------|


D#||-----------------------------------------------------------------------------------|
A#||-----------------------------------------------------------------------------------|
F#||-7-7-7-7-6-6-6-6-14-14-14-14-14-14-14-14-9-9-9-9-9-9-14--13-13-13-13-13-13-13-13---|
C#||-x-x-x-x-x-x-x-x-x--x--x--x--x--x--x--x--x-x-x-x-x-x-x---x--x--x--x--x--x--x--x----|
G#||-5-5-5-5-4-4-4-4-12-12-12-12-12-12-12-12-7-7-7-7-7-7-12--11-11-11-11-11-11-11-11---|
C#||-----------------------------------------------------------------------------------|


D#||------------------------------------------------------------------------------------------|
A#||------------------------------------------------------------------------------------------|
F#||-11-11-13-13-14-14-16-16-14-14-13-13-11-11-13-13-9-9-9-9-9-9-9-9-14-14-14-14-14-14-14-14--|
C#||-x--x--x--x--x--x--x--x--x--x--x--x--x--x--x--x--x-x-x-x-x-x-x-x-x--x--x--x--x--x--x--x---|
G#||-9--9--11-11-12-12-14-14-12-12-11-11-9--9--11-11-7-7-7-7-7-7-7-7-12-12-12-12-12-12-12-12--|
C#||------------------------------------------------------------------------------------------|


D#||-------------------------------------------------------|
A#||-------------------------------------------------------|
F#||-7-7-7-7-6-6-6-6-14-14-14-14-14-14-14-14-9-9-9-9-9-9---|
C#||-x-x-x-x-x-x-x-x-x--x--x--x--x--x--x--x--x-x-x-x-x-x---|
G#||-5-5-5-5-4-4-4-4-12-12-12-12-12-12-12-12-7-7-7-7-7-7---|
C#||-------------------------------------------------------|


Guitar 2:
D#||-------------------------------------------------------------------------|
A#||-------------------------------------------------------------------------|
F#||--------------------------------444444444444444--------------------------|
C#||-4444444444444442222222222222222444444444444444000000002222222222222222--|
G#||-4444444444444442222222222222222222222222222222000000002222222222222222--|
C#||-4444444444444442222222222222222---------------000000002222222222222222--|


D#||---------------------------------------------------------|
A#||---------------------------------------------------------|
F#||--------------------------------444444444444444----------|
C#||-444444444444444222222222222222244444444444444400000000--|
G#||-444444444444444222222222222222222222222222222200000000--|
C#||-4444444444444442222222222222222---------------00000000--|



Pre-Verse
Guitar 1/2:
D#||-------------------------------------------------------------------------|
A#||-------------------------------------------------------------------------|
F#||--4-4--------------------------------------------------------------------|
C#||--4-4---2-2---4----------4-----------------0-0--------0------------------|
G#||--2-2---2-2---4----------4-----------------0-0--------0------------------|
C#||--------2-2---4--4-4-4-4-4---7--6-4-6--4-2-0-0--0-0-0-0---9--7-6-7--6-2--|
                     . . . .                        . . .

D#||---------------------------------------------------|
A#||---------------------------------------------------|
F#||---------------------------------------------------|
C#||--4-4--------4-----------------4-44-4444/7-77-7/9--|
G#||--4-4--------4-----------------2-22-2222/5-55-5/7--|
C#||--4-4--4-4-4-4---7--6-4-6--4-2---------------------|
           . . .


Verse
Guitar 1:
D#||-------------------------------------------------|---------------------------|
A#||-10--10-9--9--10-10-12-12-10-10-9--9--10-12------|--10--10-10-10-10-12-------|
F#||-11--11-11-11-11-11-11-11-11-11-11-11-11-11--x2--|--9---9--9--9--9--9---x2---|
C#||-------------------------------------------------|---------------------------|
G#||-------------------------------------------------|---------------------------|
C#||-------------------------------------------------|---------------------------|


D#||--------------------------------------|
A#||--9--9-9-9-9-10---9--9-9-9-10-9-9-10--|
F#||--9--9-9-9-9-9----9--9-9-9-9--9-9-9---|
C#||--------------------------------------|
G#||--------------------------------------|
C#||--------------------------------------|


Guitar 2:
D#||---------------------------------------------------------------------|
A#||---------------------------------------------------------------------|
F#||---------------------------------------------------------------------|
C#||-11~-------11--12~-------12--7~---------7--6~-----6--2------2-2-2-2--|
G#||-9~--------9---9~--------9---7~---------7--6~-----6--2------2-2-2-2--|
C#||-----------------------------7~---------7--6~-----6--2------2-2-2-2--|


Guitar 1/2:
D#||--------------------------------------------------------------|
A#||--------------------------------------------------------------|
F#||--------------------------------------------------------------|
C#||-4-4-4-4-4-4-4-4-4-4-4-4-4--2-2-2--0-0-0-0-0-0-0-0-0-0-0-0-0--|
G#||-4-4-4-4-4-4-4-4-4-4-4-4-4--2-2-2--0-0-0-0-0-0-0-0-0-0-0-0-0--|
C#||-4-4-4-4-4-4-4-4-4-4-4-4-4--2-2-2--0-0-0-0-0-0-0-0-0-0-0-0-0--|
     . . . . . . . . . . . . .         . . . . . . . . . . . . .


D#||-------------------------------------------------------------------------------------|
A#||-10-10-10------------10-10-10-----------10-10-10-----------10-10-10------------------|
F#||-9--9--9-------------9--9--9------------9--9--9------------9--9--9-------------------|
C#||----------7-7-7-7-7-----------7-7-7-7-7----------6-6-6-6-6----------2-2-2-2-2-2-2-2--|
G#||----------7-7-7-7-7-----------7-7-7-7-7----------6-6-6-6-6----------2-2-2-2-2-2-2-2--|
C#||----------7-7-7-7-7-----------7-7-7-7-7----------6-6-6-6-6----------2-2-2-2-2-2-2-2--|
              . . . . .           . . . . .          . . . . .          . . . . . . . .



Pre-Chorus
Guitar 1:
D#||-----------------------------|
A#||-----------------------------|
F#||--/7---6\---2---/7---6\---2--|
C#||-----------------------------|
G#||-----------------------------|
C#||-----------------------------|


Guitar 2:
D#||------------|------------------------------------|
A#||------------|------------------------------------|
F#||-----4~-----|------------------------------------|
C#||-----4~-----|--0-0-0-0-0-0-0-0-0-0-0-0-0-0-0-0---|
G#||-----2~-----|--0-0-0-0-0-0-0-0-0-0-0-0-0-0-0-0---|
C#||------------|--0-0-0-0-0-0-0-0-0-0-0-0-0-0-0-0---|
                   . . . . . . . . . . . .


Chorus
Guitar 1:
D#||------------------------------------------------------------------------------------------|
A#||------------------------------------------------------------------------------------------|
F#||-11-11-13-13-14-14-16-16-14-14-13-13-11-11-13-13-9-9-9-9-9-9-9-9-14-14-14-14-14-14-14-14--|
C#||-x--x--x--x--x--x--x--x--x--x--x--x--x--x--x--x--x-x-x-x-x-x-x-x-x--x--x--x--x--x--x--x---|
G#||-9--9--11-11-12-12-14-14-12-12-11-11-9--9--11-11-7-7-7-7-7-7-7-7-12-12-12-12-12-12-12-12--|
C#||------------------------------------------------------------------------------------------|


D#||-----------------------------------------------------------------------------------|
A#||-----------------------------------------------------------------------------------|
F#||-7-7-7-7-6-6-6-6-14-14-14-14-14-14-14-14-9-9-9-9-9-9-14--13-13-13-13-13-13-13-13---|
C#||-x-x-x-x-x-x-x-x-x--x--x--x--x--x--x--x--x-x-x-x-x-x-x---x--x--x--x--x--x--x--x----|
G#||-5-5-5-5-4-4-4-4-12-12-12-12-12-12-12-12-7-7-7-7-7-7-12--11-11-11-11-11-11-11-11---|
C#||-----------------------------------------------------------------------------------|


D#||------------------------------------------------------------------------------------------|
A#||------------------------------------------------------------------------------------------|
F#||-11-11-13-13-14-14-16-16-14-14-13-13-11-11-13-13-9-9-9-9-9-9-9-9-14-14-14-14-14-14-14-14--|
C#||-x--x--x--x--x--x--x--x--x--x--x--x--x--x--x--x--x-x-x-x-x-x-x-x-x--x--x--x--x--x--x--x---|
G#||-9--9--11-11-12-12-14-14-12-12-11-11-9--9--11-11-7-7-7-7-7-7-7-7-12-12-12-12-12-12-12-12--|
C#||------------------------------------------------------------------------------------------|


D#||----------------------------------------------------------------------------------|
A#||----------------------------------------------------------------------------------|
F#||-7-7-7-7-6-6-6-6-14-14-14-14-14-14-14-14-9-9-9-9-9-9-9-9-13-13-13-13-13-13-13-13--|
C#||-x-x-x-x-x-x-x-x-x--x--x--x--x--x--x--x--x-x-x-x-x-x-x-x-x--x--x--x--x--x--x--x---|
G#||-5-5-5-5-4-4-4-4-12-12-12-12-12-12-12-12-7-7-7-7-7-7-7-7-11-11-11-11-11-11-11-11--|
C#||----------------------------------------------------------------------------------|


Guitar 2:
D#||-------------------------------------------------------------------------|
A#||-------------------------------------------------------------------------|
F#||--------------------------------444444444444444--------------------------| x2
C#||-4444444444444442222222222222222444444444444444000000002222222222222222--|
G#||-4444444444444442222222222222222222222222222222000000002222222222222222--|
C#||-4444444444444442222222222222222---------------000000002222222222222222--|



Bridge
Guitar 1:
D#||-------------------------------------------------------------------------------------------|
A#||-10-10-9--9--10-10-12-12-10-10-9--9--10-10-12-12--12-12-12-12-12-12-12-12-9-9-9-9-9-9-9-9--|
F#||-11-11-11-11-11-11-11-11-11-11-11-11-11-11-11-11--9--9--9--9--9--9--9--9--9-9-9-9-9-9-9-9--|
C#||-------------------------------------------------------------------------------------------|
G#||-------------------------------------------------------------------------------------------|
C#||-------------------------------------------------------------------------------------------|


D#||--------------------------------------------------|
A#||-10-10-9--9--10-10-12-12-10-10-9--9--10-10-12-12--|
F#||-11-11-11-11-11-11-11-11-11-11-11-11-11-11-11-11--|
C#||--------------------------------------------------|
G#||--------------------------------------------------|
C#||--------------------------------------------------|


Guitar 2:
D#||-----------------------------------------------------------|
A#||-----------------------------------------------------------|
F#||-----------------------------------------------------------|
C#||--4~-----0~-----2~----------4~-----0~----------------------|
G#||--4~-----0~-----2~----------4~-----0~----------------------|
C#||--4~-----0~-----2~----------4~-----0~-----2-2-2-2-2-2-2-2--|
                                              . . . . . . . .


Breakdown
Guitar 1/2:
D#||-------------------|----------------------------------------------------------|
A#||-------------------|----------------------------------------------------------|
F#||-------------------|----------------------------------------------------------|
C#||-------------------|--4-4---4-4-------------------0-0---0-0-------------------|
G#||-------------------|--4-4---4-4-------------------0-0---0-0-------------------|
C#||-6-7-9-11-9-7-6-7--|--4-4---4-4---7-6-4-6--4-2-4--0-0---0-0---9-7-6-7--6-2-4--|
                          . .   .                     . .   .

D#||--------------------------------------------------------|
A#||--------------------------------------------------------|
F#||------------------------------4-4---4-4-----------------|
C#||--4-4---4-4-------------------4-4---4-4---0-0---0-0h2---|
G#||--4-4---4-4-------------------2-2---2-2---0-0---0-0h2---|
C#||--4-4---4-4---7-6-4-6--4-2-4--------------0-0---0-0h2---|
      . .   .                     . .   .     . .   .

D#||----------------------------------------------------------|
A#||----------------------------------------------------------|
F#||----------------------------------------------------------|
C#||--4-4---4-4-------------------0-0---0-0-------------------|
G#||--4-4---4-4-------------------0-0---0-0-------------------|
C#||--4-4---4-4---7-6-4-6--4-2-4--0-0---0-0---9-7-6-7--6-2-4--|
      . .   .                     . .   .

D#||------------------------------------------------------------|
A#||------------------------------------------------------------|
F#||------------------------------4-4---4-4---------------------|
C#||--4-4---4-4-------------------4-4---4-4---0--0--0--2--2--2--|
G#||--4-4---4-4-------------------2-2---2-2---0--0--0--2--2--2--|
C#||--4-4---4-4---7-6-4-6--4-2-4--------------0--0--0--2--2--2--|
      . .   .                     . .   .     .  .  .  .  .  .



Pre-Chorus
Guitar 1:
D#||-----------------------------|
A#||-----------------------------|
F#||--/7---6\---2---/7---6\---2--|
C#||-----------------------------|
G#||-----------------------------|
C#||-----------------------------|


Guitar 2:
D#||------------|-------------------------------------|
A#||------------|-------------------------------------|
F#||-----4~-----|-------------------------------------|
C#||-----4~-----|--00000000000000000000000000000000---|
G#||-----2~-----|--00000000000000000000000000000000---|
C#||------------|--00000000000000000000000000000000---|
                   ............................


Chorus
Guitar 1:
D#||------------------------------------------------------------------------------------------|
A#||------------------------------------------------------------------------------------------|
F#||-11-11-13-13-14-14-16-16-14-14-13-13-11-11-13-13-9-9-9-9-9-9-9-9-14-14-14-14-14-14-14-14--|
C#||-x--x--x--x--x--x--x--x--x--x--x--x--x--x--x--x--x-x-x-x-x-x-x-x-x--x--x--x--x--x--x--x---|
G#||-9--9--11-11-12-12-14-14-12-12-11-11-9--9--11-11-7-7-7-7-7-7-7-7-12-12-12-12-12-12-12-12--|
C#||------------------------------------------------------------------------------------------|


D#||-----------------------------------------------------------------------------------|
A#||-----------------------------------------------------------------------------------|
F#||-7-7-7-7-6-6-6-6-14-14-14-14-14-14-14-14-9-9-9-9-9-9-14--13-13-13-13-13-13-13-13---|
C#||-x-x-x-x-x-x-x-x-x--x--x--x--x--x--x--x--x-x-x-x-x-x-x---x--x--x--x--x--x--x--x----|
G#||-5-5-5-5-4-4-4-4-12-12-12-12-12-12-12-12-7-7-7-7-7-7-12--11-11-11-11-11-11-11-11---|
C#||-----------------------------------------------------------------------------------|


D#||------------------------------------------------------------------------------------------|
A#||------------------------------------------------------------------------------------------|
F#||-11-11-13-13-14-14-16-16-14-14-13-13-11-11-13-13-9-9-9-9-9-9-9-9-14-14-14-14-14-14-14-14--|
C#||-x--x--x--x--x--x--x--x--x--x--x--x--x--x--x--x--x-x-x-x-x-x-x-x-x--x--x--x--x--x--x--x---|
G#||-9--9--11-11-12-12-14-14-12-12-11-11-9--9--11-11-7-7-7-7-7-7-7-7-12-12-12-12-12-12-12-12--|
C#||------------------------------------------------------------------------------------------|


D#||-------------------------------------------------------|
A#||-------------------------------------------------------|
F#||-7-7-7-7-6-6-6-6-14-14-14-14-14-14-14-14-9-9-9-9-9-9---|
C#||-x-x-x-x-x-x-x-x-x--x--x--x--x--x--x--x--x-x-x-x-x-x---|
G#||-5-5-5-5-4-4-4-4-12-12-12-12-12-12-12-12-7-7-7-7-7-7---|
C#||-------------------------------------------------------|


Guitar 2:
D#||-------------------------------------------------------------------------|
A#||-------------------------------------------------------------------------|
F#||--------------------------------444444444444444--------------------------|
C#||-4444444444444442222222222222222444444444444444000000002222222222222222--|
G#||-4444444444444442222222222222222222222222222222000000002222222222222222--|
C#||-4444444444444442222222222222222---------------000000002222222222222222--|


D#||---------------------------------------------------------|
A#||---------------------------------------------------------|
F#||--------------------------------444444444444444----------|
C#||-444444444444444222222222222222244444444444444400000000--|
G#||-444444444444444222222222222222222222222222222200000000--|
C#||-4444444444444442222222222222222---------------00000000--|



Outro
Guitar 1/2:
D#||-------------------|
A#||-------------------|
F#||--4-4--------------|
C#||--4-4---2-2---4-\--|
G#||--2-2---2-2---4-\--|
C#||--------2-2---4-\--|




Tablature Legend
----------------
 h   hammer-on
 p   pull-off
 b   bend
 pb  pre-bend
 r   release bend
 ~   hold / vibrato
 .   palm mute
 /   slide up
 \   slide down
 *   pinch harmonic
 '   natural harmonic
 x   mute note
 T   tap
comments
We did not receive enough feedback on this tab! Please rate:
print report bad tab
1 2 3 4 5
I want to post or [tab]
guest
You may want to rate the tab now too:
select rating
Please do not post tabs as comments. Select "correction" instead!