Oops, an error
Loading. Please wait.

Stand Amid The Roar Tab

6,648 views 51 this week
no commentswrite comment
1 2 3 4 5
excellent!
x 5
Autoscroll
+/-
esc
set tempo
stop
Contributor
Difficulty
Tuning
intermediate
C# G# C# F# A# D#
WARNING: You are trying to view
                                    content from Ultimate-Guitar.com
                                    in an unauthorized application,
                                    which is prohibited.

                                    Please use an official Ultimate
                                    Guitar Tabs application for iPhone,
                                    iPad or Android to access legitimate
                                    chords, guitar, bass, and drum tabs
                                    from Ultimate-Guitar.com database.

                                    Type "ultimate guitar tabs" in Apple
                                    App Store's or Android Market's
                                    search to find the application.
Tabbed by: Joshua Garcia (joshuag523@aol.com)

Tabs for the song: Stand Amid the Roar by Silverstein
Please rate and let me know if you have any corrections. Thank you.


**For my tab of the whole album, go here:
http://tabs.ultimate-guitar.com/s/silverstein/this_is_how_the_wind_shifts_album_tab.htm **


Tuning: Drop C# (C# G# C# F# A# D#)


Intro
Guitar 1:
D#||-------------------------------------------------------------------|
A#||-------------------------------------------------------------------|
F#||-------------------------------------------------------------------|
C#||---------------------------------------------------------------xx--|
G#||---------------------------------------------------------------xx--|
C#||--555555555555555555555555555555555555555555555555555555555555-xx--|



Verse
Guitar 1:
D#||------------------------|-------------------------|
A#||------------------------|-------------------------|
F#||------------------------|-------------------------|
C#||--8--88--888--88888/10--|--7--77--777-------------| x2
G#||--5--55--555------------|--3--33--333--66666-5----|
C#||--5--55--555------------|--3--33--333----------8--|


Guitar 2:
D#||------------------------|-------------------------|
A#||------------------------|-------------------------|
F#||--------------77777h8---|-------------------------|
C#||--8--88--888------------|--7--77--777--55555-3----|
G#||--5--55--555------------|--3--33--333----------5--|
C#||--5--55--555------------|--3--33--333-------------|



Guitar 1:
D#||-------------------------------------------------------|
A#||--1111111111111111----------66666666-1010101010101010--|
F#||-------------------77777777----------------------------|
C#||-------------------------------------------------------| x2
G#||-------------------------------------------------------|
C#||-------------------------------------------------------|
     (^ 11's)


Guitar 2:
D#||------------------------|-----------------------|
A#||------------------------|-----------------------|
F#||------------------------|-----------------------|
C#||--8--88--888--88888/10--|--7--77--777-777-------| x2
G#||--5--55--555------------|--3--33--333-333-------|
C#||--5--55--555------------|--3--33--333-333--333--|


Guitar 3:
D#||------------------------|------------------------|
A#||------------------------|------------------------|
F#||--------------77777h8---|------------------------|
C#||--8--88--888------------|--7--77--777--777-------| x2
G#||--5--55--555------------|--3--33--333--333-------|
C#||--5--55--555------------|--3--33--333--333--333--|



Pre-Chorus
Guitar 1:
D#||---------------------------------------------|
A#||--8--8--8-10--10--10-11--11--11-13~--b15r13--|
F#||---------------------------------------------|
C#||---------------------------------------------|
G#||---------------------------------------------|
C#||---------------------------------------------|


Guitar 2:
D#||---------------------------------------------|
A#||---------------------------------------------|
F#||---------------------------------------------|
C#||--1~--1~---1~---1~---1~----------------------|
G#||--1~--1~---1~---1~---1~----6--6--6-5~--b4r5--|
C#||--1~--1~---1~---1~---1~----------------------|



Chorus
Guitar 1/2:
D#||-----------------------------------------------|
A#||--------3------------3-----------3-------------|
F#||--------3------------3-----------3-------------|
C#||--5--4-------5--4-5------5-4--5-----1---0---4--| x4
G#||--5--4-------5--4-5------5-4--5-----1---0---4--|
C#||--5--4-------5--4-5------5-4--5-----1---0---4--|



Pre-Verse
Guitar 1:
D#||-----------------------------------|
A#||-----------------------------------|
F#||-----------------------------------|
C#||-------------------------------xx--|
G#||-------------------------------xx--|
C#||--5555555555555555555555555555-xx--|


Guitar 2:
D#||-----------------------------------|
A#||-----------------------------------|
F#||-----------------------------------|
C#||-------------------------------xx--|
G#||-------------------------------xx--|
C#||--5~---------------------------xx--|



Verse
Guitar 1:
D#||------------------------|-------------------------|
A#||------------------------|-------------------------|
F#||------------------------|-------------------------|
C#||--8--88--888--88888/10--|--7--77--777-------------| x2
G#||--5--55--555------------|--3--33--333--66666-5----|
C#||--5--55--555------------|--3--33--333----------8--|


Guitar 2:
D#||------------------------|-------------------------|
A#||------------------------|-------------------------|
F#||--------------77777h8---|-------------------------|
C#||--8--88--888------------|--7--77--777--55555-3----|
G#||--5--55--555------------|--3--33--333----------5--|
C#||--5--55--555------------|--3--33--333-------------|



Guitar 1:
D#||-------------------------------------------------------|
A#||--1111111111111111----------66666666-1010101010101010--|
F#||-------------------77777777----------------------------|
C#||-------------------------------------------------------| x2
G#||-------------------------------------------------------|
C#||-------------------------------------------------------|


Guitar 2:
D#||------------------------|-----------------------|
A#||------------------------|-----------------------|
F#||------------------------|-----------------------|
C#||--8--88--888--88888/10--|--7--77--777-777-------| x2
G#||--5--55--555------------|--3--33--333-333-------|
C#||--5--55--555------------|--3--33--333-333--333--|


Guitar 3:
D#||------------------------|------------------------|
A#||------------------------|------------------------|
F#||--------------77777h8---|------------------------|
C#||--8--88--888------------|--7--77--777--777-------| x2
G#||--5--55--555------------|--3--33--333--333-------|
C#||--5--55--555------------|--3--33--333--333--333--|



Pre-Chorus
Guitar 1:
D#||----------------------------------|
A#||--8--8--8-8--8--8-7--7--7-7~--7\--|
F#||----------------------------------|
C#||----------------------------------|
G#||----------------------------------|
C#||----------------------------------|


Guitar 2:
D#||-------------------------------------------|
A#||-------------------------------------------|
F#||-------------------------------------------|
C#||--1~--1~---1~---1~---1~--------------------|
G#||--1~--1~---1~---1~---1~----6--6--6-5~--5\--|
C#||--1~--1~---1~---1~---1~--------------------|



Chorus
Guitar 1/2:
D#||-----------------------------------------------|
A#||--------3------------3-----------3-------------|
F#||--------3------------3-----------3-------------|
C#||--5--4-------5--4-5------5-4--5-----1---0---4--| x4
G#||--5--4-------5--4-5------5-4--5-----1---0---4--|
C#||--5--4-------5--4-5------5-4--5-----1---0---4--|


D#||-------------|
A#||-------------|
F#||-------------|
C#||--1---0---4--|
G#||--1---0---4--|
C#||--1---0---4--|



Interlude
Guitar 1:
D#||-----18------------------------------------------|
A#||--------15---------8~---10--11--6~--8~-----------|
F#||--15-------15~-----10~----------8~---------8--7--|
C#||-------------------------------------------------| x2
G#||-------------------------------------------------|
C#||-------------------------------------------------|


Guitar 2:
D#||-------------------------------------------------|
A#||-------------------3~-----------4~---------------|
F#||-------------------3~-----------5~---------------|
C#||--5~---------------3~-----------5~---------------| x2
G#||--5~---------------1~-----------3~---------------|
C#||--5~---------------------------------------------|




Guitar 1:
D#||-----18-------------------------------------------------------------------------------------|
A#||--------15------15-15-15---8--8--8--10-10-10-11-11---6-6-6-8-8-8-10-10-10-------------------|
F#||--15-------15---15-15-15---10-10-10-10-10-10-10-10---8-8-8-8-8-8-8--8--8---8-8-8-7-7-7-7-/--|
C#||--------------------------------------------------------------------------------------------|
G#||--------------------------------------------------------------------------------------------|
C#||--------------------------------------------------------------------------------------------|


Guitar 2:
D#||-------------------------------------------------------------------|
A#||-------------------------------------------------------------------|
F#||------------------3-3-3-3-3-3-3-3-5-5-5-5-5-5-5-5-8-8-8-8-8-8-8-8--|
C#||--5-5-5-5-5-5-5-5-3-3-3-3-3-3-3-3-5-5-5-5-5-5-5-5-8-8-8-8-8-8-8-8--|
G#||--5-5-5-5-5-5-5-5-1-1-1-1-1-1-1-1-3-3-3-3-3-3-3-3-6-6-6-6-6-6-6-6--|
C#||--5-5-5-5-5-5-5-5--------------------------------------------------|
      . . . . . . . . . . . . . . . . . . . . . . . . . . . .


Guitar 1:
D#||-----18-------------------------------------------------------------------------------|
A#||--------15------15-15-15---8--8--8--10-10-10-11-11---6-6-6-8-8-8-10-10-10-------------|
F#||--15-------15---15-15-15---10-10-10-10-10-10-10-10---8-8-8-8-8-8-8--8--8---8-8-8-7-7--|
C#||--------------------------------------------------------------------------------------|
G#||--------------------------------------------------------------------------------------|
C#||--------------------------------------------------------------------------------------|


Guitar 2:
D#||---------------------------------------------------------------|
A#||---------------------------------------------------------------|
F#||------------------3-3-3-3-3-3-3-3-5-5-5-5-5-5-5-5-8-8-8-8-8-8--|
C#||--5-5-5-5-5-5-5-5-3-3-3-3-3-3-3-3-5-5-5-5-5-5-5-5-8-8-8-8-8-8--|
G#||--5-5-5-5-5-5-5-5-1-1-1-1-1-1-1-1-3-3-3-3-3-3-3-3-6-6-6-6-6-6--|
C#||--5-5-5-5-5-5-5-5----------------------------------------------|
      . . . . . . . . . . . . . . . . . .



Bridge
Guitar 1:
D#||-----18-------------------------------------------------------------------------------------|
A#||--------15------15-15-15---8--8--8--10-10-10-11-11---6-6-6-8-8-8-10-10-10-------------------|
F#||--15-------15---15-15-15---10-10-10-10-10-10-10-10---8-8-8-8-8-8-8--8--8---8-8-8-7-7-7-7-/--|
C#||--------------------------------------------------------------------------------------------| x4
G#||--------------------------------------------------------------------------------------------|
C#||--------------------------------------------------------------------------------------------|


D#||---------------------------------------------------------------------|
A#||---------------------------------------------------------------------|
F#||--15-15-15-15-15-15-15-15-14-14-14-14-14-14-14-14-12~-------(b~~15)--|
C#||---------------------------------------------------------------------|
G#||---------------------------------------------------------------------|
C#||---------------------------------------------------------------------|


Guitar 2:
D#||-------------------------------------------------------------------|
A#||-------------------------------------------------------------------|
F#||------------------3-3-3-3-3-3-3-3-5-5-5-5-5-5-5-5------------------|
C#||--5-5-5-5-5-5-5-5-3-3-3-3-3-3-3-3-5-5-5-5-5-5-5-5-1-1-1-1-1-1-1-1--| x4
G#||--5-5-5-5-5-5-5-5-1-1-1-1-1-1-1-1-3-3-3-3-3-3-3-3-1-1-1-1-1-1-1-1--|
C#||--5-5-5-5-5-5-5-5---------------------------------1-1-1-1-1-1-1-1--|


D#||-----------------------------------|
A#||-----------------------------------|
F#||-----------------------------------|
C#||--0-0-0-0-0-0-0-0-0-0-0-0-0-0-0-0--|
G#||--0-0-0-0-0-0-0-0-0-0-0-0-0-0-0-0--|
C#||--0-0-0-0-0-0-0-0-0-0-0-0-0-0-0-0--|



Chorus
Guitar 1/2:
D#||-----------------------------------------------|
A#||--------3------------3-----------3-------------|
F#||--------3------------3-----------3-------------|
C#||--5--4-------5--4-5------5-4--5-----1---0---4--| x4
G#||--5--4-------5--4-5------5-4--5-----1---0---4--|
C#||--5--4-------5--4-5------5-4--5-----1---0---4--|


Outro
Guitar 1/2:
D#||-----------------------------------------------|
A#||--------3------------3-----------3-------------|
F#||--------3------------3-----------3-------------|
C#||--5x-4----xx-5--4-5------5-4--5-----1---0---4--| x2
G#||--5x-4----xx-5--4-5------5-4--5-----1---0---4--|
C#||--5x-4----xx-5--4-5------5-4--5-----1---0---4--|




Tablature Legend
----------------
 h   hammer-on
 p   pull-off
 b   bend
 pb  pre-bend
 r   release bend
 ~   hold / vibrato
 .   palm mute
 /   slide up
 \   slide down
 *   pinch harmonic
 '   natural harmonic
 x   mute note
 T   tap
comments
print report bad tab
I want to post or [tab]
guest
You may want to rate the tab now too:
select rating
Please do not post tabs as comments. Select "correction" instead!