Oops, an error
Loading. Please wait.

Still Dreaming Tab

ver1
ver1

Whole song

More versions @911Tabs.com
8,736 views 3 this week
2 commentsread comments
1 2 3 4 5
worth learning
x 7
Autoscroll
+/-
esc
set tempo
stop
Contributor
Difficulty
intermediate
WARNING: You are trying to view
                                    content from Ultimate-Guitar.com
                                    in an unauthorized application,
                                    which is prohibited.

                                    Please use an official Ultimate
                                    Guitar Tabs application for iPhone,
                                    iPad or Android to access legitimate
                                    chords, guitar, bass, and drum tabs
                                    from Ultimate-Guitar.com database.

                                    Type "ultimate guitar tabs" in Apple
                                    App Store's or Android Market's
                                    search to find the application.
-----------------------------------------------------------------
Still Dreaming - Silverstein
-----------------------------------------------------------------
Email: enjoi_globe_sk8er_guy@yahoo.com
Tuning: EADGBe

Intro Guitar 1: 4x
e|-----------------------------------------------------------------------------|
B|-----------------------------------------------------------------------------|
G|-1313131313131313-1010101010101010-121212-1717-1515-12-121212-1717-1515-1212-|
D|-1212121212121212--8-8-8-8-8-8-8-8-101010-1515-1313-10-101010-1515-1313-1010-|
A|-----------------------------------------------------------------------------|
E|-----------------------------------------------------------------------------|

Intro Guitar 2
e|-P----------------------------------------------------------------------------|
B|-I-S--------------------------------------------------------------------------|
G|-C-L--55555555-33333333-------------------55555555-33333333-------------------|
D|-K-I--55555555-33333333-66666666-66666666-55555555-33333333-66666666-66666666-|
A|---D--33333333-11111111-66666666-66666666-33333333-11111111-66666666-66666666-|
E|---E--------------------44444444-44444444-------------------44444444-44444444-|

Verse Guitar 1
e|--------------------------------------------------------------------------|
B|--------------------------------------------------------------------------|
G|-55555555-55555555-33333333-33333333-------------------33333333-33333-333-|
D|-55555555-55555555-33333333-33333333-66666666-66666666-33333333-33333-333-|
A|-33333333-33333333-11111111-11111111-66666666-66666666-11111111-11111-111-|
E|-------------------------------------44444444-44444444--------------------|
PM ........ ........ ........ ........ ........ ........ ........ .....

Verse Guitar 2
e|--------------------------------------------------------------------------|
B|--------------------------------------------------------------------------|
G|-5~----------------33333333-33333333-------------------33333333-33333-333-|
D|-5~----------------33333333-33333333-66666666-66666666-33333333-33333-333-|
A|-3~----------------11111111-11111111-66666666-66666666-11111111-11111-111-|
E|-------------------------------------44444444-44444444--------------------|
PM                   ........ ........ ........ ........ ........ .....

Verse Guitar 1 & 2: 2x
e|---------------------------------------------------------------------------|
B|---------------------------------------------------------------------------|
G|-5-5555555-55555555-33333333-33333333-------------------33333333-33333-333-|
D|-5-5555555-55555555-33333333-33333333-66666666-66666666-33333333-33333-333-|
A|-3-3333333-33333333-11111111-11111111-66666666-66666666-11111111-11111-111-|
E|--------------------------------------44444444-44444444--------------------|
PM   ....... ........ ........ ........ ........ ........ ........ .....

PreChorus Guitar 1 & 2
e|---------------P---|
B|---------------I-S-|
G|---------------C-L-|
D|-6~-----6~-----K-I-|
A|-6~-----6~-------D-|
E|-4~-----4~-------E-|

Chorus Guitar 1
e|-----------------------------------------------------------------------------|
B|-----------------------------------------------------------------------------|
G|-1313131313131313-1010101010101010-121212-1717-1515-12-121212-1717-1515-1212-|
D|-1212121212121212--8-8-8-8-8-8-8-8-101010-1515-1313-10-101010-1515-1313-1010-|
A|-----------------------------------------------------------------------------|
E|-----------------------------------------------------------------------------|

e|-----------------------------------------------------------------------------|
B|-----------------------------------------------------------------------------|
G|-1313131313131313-1010101010101010-121212-1717-1515-12-121212-1717-1515-1212-|
D|-1212121212121212--8-8-8-8-8-8-8-8-101010-1515-1313-10-101010-1515-1313-1010-|
A|-----------------------------------------------------------------------------|
E|-----------------------------------------------------------------------------|

e|-----------------------------------------------------------------------|
B|-----------------------------------------------------------------------|
G|-1515151515151515-12121212-22222222-1919191919191919-17171717-19191919-|
D|-1313131313131313-10101010-20202020-1717171717171717-15151515-17171717-|
A|-----------------------------------------------------------------------|
E|-----------------------------------------------------------------------|

e|---------------------------------------|
B|---------------------------------------|
G|-1515151515151515-1212121212121212-10~-|
D|-1313131313131313-1010101010101010--8~-|
A|---------------------------------------|
E|---------------------------------------|

Chorus Guitar 2
e|-------------------------------------------------------------------------|
B|-------------------------------------------------------------------------|
G|-55555555-33333333-------------------55555555-33333333-------------------|
D|-55555555-33333333-66666666-66666666-55555555-33333333-66666666-66666666-|
A|-33333333-11111111-66666666-66666666-33333333-11111111-66666666-66666666-|
E|-------------------44444444-44444444-------------------44444444-44444444-|

e|-------------------------------------------------------------------------|
B|-------------------------------------------------------------------------|
G|-33333333----------55555555-55555555-55555555-33333333-------------------|
D|-33333333-66666666-55555555-55555555-55555555-33333333-66666666-66666666-|
A|-11111111-66666666-33333333-33333333-33333333-11111111-66666666-66666666-|
E|----------44444444-------------------------------------44444444-44444444-|

Verse Guitar 1
e|--------------------------------------------------------------------------|
B|--------------------------------------------------------------------------|
G|-55555555-55555555-33333333-33333333-------------------33333333-33333-333-|
D|-55555555-55555555-33333333-33333333-66666666-66666666-33333333-33333-333-|
A|-33333333-33333333-11111111-11111111-66666666-66666666-11111111-11111-111-|
E|-------------------------------------44444444-44444444--------------------|
PM ........ ........ ........ ........ ........ ........ ........ .....

Verse Guitar 2
e|--------------------------------------------------------------------------|
B|--------------------------------------------------------------------------|
G|-5~----------------33333333-33333333-------------------33333333-33333-333-|
D|-5~----------------33333333-33333333-66666666-66666666-33333333-33333-333-|
A|-3~----------------11111111-11111111-66666666-66666666-11111111-11111-111-|
E|-------------------------------------44444444-44444444--------------------|
PM                   ........ ........ ........ ........ ........ .....

Verse Guitar 1 & 2
e|---------------------------------------------------------------------------|
B|---------------------------------------------------------------------------|
G|-5-5555555-55555555-33333333-33333333-------------------33333333-33333-333-|
D|-5-5555555-55555555-33333333-33333333-66666666-66666666-33333333-33333-333-|
A|-3-3333333-33333333-11111111-11111111-66666666-66666666-11111111-11111-111-|
E|--------------------------------------44444444-44444444--------------------|
PM   ....... ........ ........ ........ ........ ........ ........ .....

PreChorus Guitar 1 & 2
e|---------------P---|
B|---------------I-S-|
G|---------------C-L-|
D|-6~-----6~-----K-I-|
A|-6~-----6~-------D-|
E|-4~-----4~-------E-|

Chorus Guitar 1
e|-----------------------------------------------------------------------------|
B|-----------------------------------------------------------------------------|
G|-1313131313131313-1010101010101010-121212-1717-1515-12-121212-1717-1515-1212-|
D|-1212121212121212--8-8-8-8-8-8-8-8-101010-1515-1313-10-101010-1515-1313-1010-|
A|-----------------------------------------------------------------------------|
E|-----------------------------------------------------------------------------|

e|-----------------------------------------------------------------------------|
B|-----------------------------------------------------------------------------|
G|-1313131313131313-1010101010101010-121212-1717-1515-12-121212-1717-1515-1212-|
D|-1212121212121212--8-8-8-8-8-8-8-8-101010-1515-1313-10-101010-1515-1313-1010-|
A|-----------------------------------------------------------------------------|
E|-----------------------------------------------------------------------------|

e|-----------------------------------------------------------------------|
B|-----------------------------------------------------------------------|
G|-1515151515151515-12121212-22222222-1919191919191919-17171717-19191919-|
D|-1313131313131313-10101010-20202020-1717171717171717-15151515-17171717-|
A|-----------------------------------------------------------------------|
E|-----------------------------------------------------------------------|

e|---------------------------------------|
B|---------------------------------------|
G|-1515151515151515-1212121212121212-10~-|
D|-1313131313131313-1010101010101010--8~-|
A|---------------------------------------|
E|---------------------------------------|

Chorus Guitar 2
e|-------------------------------------------------------------------------|
B|-------------------------------------------------------------------------|
G|-55555555-33333333-------------------55555555-33333333-------------------|
D|-55555555-33333333-66666666-66666666-55555555-33333333-66666666-66666666-|
A|-33333333-11111111-66666666-66666666-33333333-11111111-66666666-66666666-|
E|-------------------44444444-44444444-------------------44444444-44444444-|

e|-------------------------------------------------------------------------|
B|-------------------------------------------------------------------------|
G|-33333333----------55555555-55555555-55555555-33333333-------------------|
D|-33333333-66666666-55555555-55555555-55555555-33333333-66666666-66666666-|
A|-11111111-66666666-33333333-33333333-33333333-11111111-66666666-66666666-|
E|----------44444444-------------------------------------44444444-44444444-|

Bridge Guitar 1 & 2 (You have to find your own strumming pattern) 4x
e|---------|
B|---------|
G|-5-3-----|
D|-5-3-6---|
A|-3-1-6---|
E|-----4---|

PreChorus Guitar 1 & 2
e|-------------------------------------------------------------------------|
B|-------------------------------------------------------------------------|
G|----------33333333-55555555-33333333----------33333333-55555555-77777777-|
D|-66666666-33333333-55555555-33333333-66666666-33333333-55555555-77777777-|
A|-66666666-11111111-33333333-11111111-66666666-11111111-33333333-55555555-|
E|-44444444----------------------------44444444----------------------------|

Screamo Part Guitar 1
e|------------------|
B|------------------|
G|-55-33----33-5555-|
D|-55-33-66-33-5555-|
A|-33-11-66-11-3333-|
E|-------44---------|

Screamo Part Guitar 2
e|------------------|
B|------------------|
G|------------------|
D|-------------xxxx-|
A|-------------xxxx-|
E|-------------xxxx-|

Chorus Guitar 1
e|-----------------------------------------------------------------------------|
B|-----------------------------------------------------------------------------|
G|-1313131313131313-1010101010101010-121212-1717-1515-12-121212-1717-1515-1212-|
D|-1212121212121212--8-8-8-8-8-8-8-8-101010-1515-1313-10-101010-1515-1313-1010-|
A|-----------------------------------------------------------------------------|
E|-----------------------------------------------------------------------------|

e|-----------------------------------------------------------------------------|
B|-----------------------------------------------------------------------------|
G|-1313131313131313-1010101010101010-121212-1717-1515-12-121212-1717-1515-1212-|
D|-1212121212121212--8-8-8-8-8-8-8-8-101010-1515-1313-10-101010-1515-1313-1010-|
A|-----------------------------------------------------------------------------|
E|-----------------------------------------------------------------------------|

e|-----------------------------------------------------------------------|
B|-----------------------------------------------------------------------|
G|-1515151515151515-12121212-22222222-1919191919191919-17171717-19191919-|
D|-1313131313131313-10101010-20202020-1717171717171717-15151515-17171717-|
A|-----------------------------------------------------------------------|
E|-----------------------------------------------------------------------|

e|---------------------------------------|
B|---------------------------------------|
G|-1515151515151515-1212121212121212-10~-|
D|-1313131313131313-1010101010101010--8~-|
A|---------------------------------------|
E|---------------------------------------|

Chorus Guitar 2
e|-------------------------------------------------------------------------|
B|-------------------------------------------------------------------------|
G|-55555555-33333333-------------------55555555-33333333-------------------|
D|-55555555-33333333-66666666-66666666-55555555-33333333-66666666-66666666-|
A|-33333333-11111111-66666666-66666666-33333333-11111111-66666666-66666666-|
E|-------------------44444444-44444444-------------------44444444-44444444-|

e|-------------------------------------------------------------------------|
B|-------------------------------------------------------------------------|
G|-33333333----------55555555-55555555-55555555-33333333-------------------|
D|-33333333-66666666-55555555-55555555-55555555-33333333-66666666-66666666-|
A|-11111111-66666666-33333333-33333333-33333333-11111111-66666666-66666666-|
E|----------44444444-------------------------------------44444444-44444444-|

Outro Guitar 1
e|---------------------------------------------------------------------|
B|---------------------------------------------------------------------|
G|-1515151515151515-1212121212121212-1010101010101010-1010101010101010-|
D|-1313131313131313-1010101010101010--8-8-8-8-8-8-8-8--8-8-8-8-8-8-8-8-|
A|---------------------------------------------------------------------|
E|---------------------------------------------------------------------|

e|---------------------------------------------------------------------|
B|---------------------------------------------------------------------|
G|-1515151515151515-1212121212121212-1010101010101010-1010101010101010-|
D|-1313131313131313-1010101010101010--8-8-8-8-8-8-8-8--8-8-8-8-8-8-8-8-|
A|---------------------------------------------------------------------|
E|---------------------------------------------------------------------|

e|-----------------------------------------------------------------------|
B|-----------------------------------------------------------------------|
G|-1515151515151515-12121212-22222222-1919191919191919-17171717-19191919-|
D|-1313131313131313-10101010-20202020-1717171717171717-15151515-17171717-|
A|-----------------------------------------------------------------------|
E|-----------------------------------------------------------------------|

e|---------------------------------------|
B|---------------------------------------|
G|-1515151515151515-1212121212121212-10~-|
D|-1313131313131313-1010101010101010--8~-|
A|---------------------------------------|
E|---------------------------------------|

Outro Guitar 2
e|-------------------------------------------------------------------------|
B|-------------------------------------------------------------------------|
G|-55555555-33333333-------------------55555555-33333333-------------------|
D|-55555555-33333333-66666666-66666666-55555555-33333333-6-x-6-66-6-x-6-66-|
A|-33333333-11111111-66666666-66666666-33333333-11111111-6-x-6-66-6-x-6-66-|
E|-------------------44444444-44444444-------------------4-x-4-44-4-x-4-44-|

e|---------------------------------------------------------|
B|---------------------------------------------------------|
G|-33333333----------55555555-55555555--5--5--3--3---------|
D|-33333333-66666666-55555555-55555555--5--5--3--3--xxx-6~-|
A|-11111111-66666666-33333333-33333333--3--3--1--1--xxx-6~-|
E|----------44444444--------------------------------xxx-4~-|

| /  slide up
| \  slide down
| h  hammer-on
| p  pull-off
| ~  vibrato
| +  harmonic
| x  Mute note
comments
print report bad tab
2 comments total.
0 reply
fenderbassist wrote on September 19 2007, 09:13 pm

this tab is terrible. what song were you listening to when you tabbed this because it's way off...?

0 reply
ittakestwotokil wrote on December 19 2007, 11:51 am

intro/chours riff is wrong

I want to post or [tab]
guest
You may want to rate the tab now too:
select rating
Please do not post tabs as comments. Select "correction" instead!