Oops, an error
Loading. Please wait.

Still Dreaming Tab

ver3
ver3

Whole song

Interactive

More versions @911Tabs.com
18,739 views 27 this week
3 commentsread comments
1 2 3 4 5
excellent!
x 10
Autoscroll
+/-
esc
set tempo
stop
Contributor
Difficulty
Tuning
intermediate
D A D G B E
Hey! There's an official Ultimate Guitar app which is ideal
for learning songs when you're away from computer. Get the app
WARNING: You are trying to view
                                    content from Ultimate-Guitar.com
                                    in an unauthorized application,
                                    which is prohibited.

                                    Please use an official Ultimate
                                    Guitar Tabs application for iPhone,
                                    iPad or Android to access legitimate
                                    chords, guitar, bass, and drum tabs
                                    from Ultimate-Guitar.com database.

                                    Type "ultimate guitar tabs" in Apple
                                    App Store's or Android Market's
                                    search to find the application.
-------------------------------------------------------------------------------
                             Still Dreaming - Silverstein
-------------------------------------------------------------------------------
Album: Arrivals and Departures (2007)
Tabbed by: Guitar4life1210
Email:

Tuning: Drop D

K so all the other tabs were wrong so I'm doing it myself.
This is my first tab ever but I think it's pretty close.
Leave comments and suggestions if you think something is different.

Layout: Guitar I and then Guitar II

GUITAR I

Intro [x4]

|--------------------------------------------------------------------------------------------|
|--------------------------------------------------------------------------------------------|
|-8--8--8--8--8--8--8--8---8-8-8-8-8-8-8-8---8--8--8--12-12-10-10-8-8--8--8--12-12-10-10-8-8-|
|-12-12-12-12-12-12-12-8---8-8-8-8-8-8-8-8---10-10-10-13-13-13-13-8-10-10-10-13-13-13-13-8-8-|
|--------------------------------------------------------------------------------------------|
|--------------------------------------------------------------------------------------------|  

Verse I

|---|------------------------------------------------------------------|
|---|------------------------------------------------------------------|
|-5-|.-5-5-5-5-5-5-5-5-5-5-5-3-3-3-3-----------------------------------|
|-5-|.-5-5-5-5-5-5-5-5-5-5-5-3-3-3-3-6--6--6-6-6-6-6-6-6-6-6-6-6-6-6-6-|
|-3-|--3-3-3-3-3-3-3-3-3-3-3-1-1-1-1-10-10-6-6-6-6-6-6-6-6-6-6-6-8-8-8-|
|---|--------------------------------6--6--6-6-6-6-6-6-6-6-6-6-6-6-6-6-|
  .    . . . . . . . . . . . . . . . .  .  . . . . . . . . . . . . . .

|-----------------------------------------------------------------|----|
|-----------------------------------------------------------------|----|
|-----------------------------------------------------------3-3-3-|-5-.|
|-1-1-3-3-3-3-3-3-3-3-3-3-3-3-3-3-1-1-1-1-1-1-1-1-1-1-1-1-1-x-x-x-|-x-.|
|-1-1-3-3-3-3-3-3-3-3-3-3-3-3-3-3-1-1-1-1-1-1-1-1-1-1-1-1-1-1-1-1-|-3--|
|-1-1-3-3-3-3-3-3-3-3-3-3-3-3-3-3-1-1-1-1-1-1-1-1-1-1-1-1-1-------|----| [x2]
  . . . . . . . . . . . . . . . . . . . . . . . . . . . . .

|-----------------------------------------------------------------|
|-----------------------------------------------------------------|
|-5-5-5-5-5-5-5-5-5-5-5-3-3-3-3-----------------------------------|
|-5-5-5-5-5-5-5-5-5-5-5-3-3-3-3-6--6--6-6-6-6-6-6-6-6-6-6-6-6-6-6-|
|-3-3-3-3-3-3-3-3-3-3-3-1-1-1-1-10-10-6-6-6-6-6-6-6-6-6-6-6-8-8-8-|
|-------------------------------6--6--6-6-6-6-6-6-6-6-6-6-6-6-6-6-|
  . . . . . . . . . . . . . . . .  .  . . . . . . . . . . . . . .


|------------------------------------------------------------------|
|------------------------------------------------------------------|
|------------------------------------------------------------------|
|-1-1-3-3-3-3-3-3-3-3-3-3-3-3-3-3-1-1-1-1-1-1-1-1-1-1-1-1-1-1-1-1--|
|-1-1-3-3-3-3-3-3-3-3-3-3-3-3-3-3-1-1-1-1-1-1-1-1-1-1-1-1-1-1-1-1--|
|-1-1-3-3-3-3-3-3-3-3-3-3-3-3-3-3-1-1-1-1-1-1-1-1-1-1-1-1-1-1-1-1--|
  . . . . . . . . . . . . . . . . . . . . . . . . . . Come out of PM

|-------------------------|
|-------------------------|
|-------------------------|
|-6~-------6~--//////////-|
|-6~---8-6-6~--//////////-|
|-6~-----------//////////-| [x1]

Chorus

|--------------------------------------------------------------------------------------------|
|--------------------------------------------------------------------------------------------|
|-8--8--8--8--8--8--8--8---8-8-8-8-8-8-8-8---8--8--8--12-12-10-10-8-8--8--8--12-12-10-10-8-8-|
|-12-12-12-12-12-12-12-8---8-8-8-8-8-8-8-8---10-10-10-13-13-13-13-8-10-10-10-13-13-13-13-8-8-|
|--------------------------------------------------------------------------------------------|
|---------------------------------------------------------------------------------------[x2]-| 

|------------------------------------------------------------------------------------------------|
|------------------------------------------------------------------------------------------------|
|-------------------------------------15-15-15-15-12-12-12-12-12-12-12-12-10-10-10-10-10-8-8-8-8-|
|-13-13-13-13-13-13-13-13-12-12-12-12------------------------------------------------------------|
|------------------------------------------------------------------------------------------------|
|------------------------------------------------------------------------------------------------|

|--------------------------------------------------------------|
|--------------------------------------------------------------| Not sure
|-8-8-8-7-7-7-8-8-8-7-7-7-7-8-7-5-5-5-5-5-5-5-5-5-5-5-5-5-5-5-5| about this
|--------------------------------------------------------------| part.
|--------------------------------------------------------------| 
|--------------------------------------------------------------| [x1]

Verse II

|------------------------------------------------------------------|
|------------------------------------------------------------------|
|--5-5-5-5-5-5-5-5-5-5-5-3-3-3-3-----------------------------------|
|--5-5-5-5-5-5-5-5-5-5-5-3-3-3-3-6--6--6-6-6-6-6-6-6-6-6-6-6-6-6-6-|
|--3-3-3-3-3-3-3-3-3-3-3-1-1-1-1-10-10-6-6-6-6-6-6-6-6-6-6-6-8-8-8-|
|--------------------------------6--6--6-6-6-6-6-6-6-6-6-6-6-6-6-6-|
   . . . . . . . . . . . . . . . .  .  . . . . . . . . . . . . . .

|-----------------------------------------------------------------|
|-----------------------------------------------------------------|
|-----------------------------------------------------------3-3-3-|
|-1-1-3-3-3-3-3-3-3-3-3-3-3-3-3-3-1-1-1-1-1-1-1-1-1-1-1-1-1-x-x-x-|
|-1-1-3-3-3-3-3-3-3-3-3-3-3-3-3-3-1-1-1-1-1-1-1-1-1-1-1-1-1-1-1-1-|
|-1-1-3-3-3-3-3-3-3-3-3-3-3-3-3-3-1-1-1-1-1-1-1-1-1-1-1-1-1-------| [x1]
  . . . . . . . . . . . . . . . . . . . . . . . . . . . . .

|-----------------------------------------------------------------|
|-----------------------------------------------------------------|
|-5-5-5-5-5-5-5-5-5-5-5-3-3-3-3-----------------------------------|
|-x-5-5-5-5-5-5-5-5-5-5-3-3-3-3-6--6--6-6-6-6-6-6-6-6-6-6-6-6-6-6-|
|-3-3-3-3-3-3-3-3-3-3-3-1-1-1-1-10-10-6-6-6-6-6-6-6-6-6-6-6-8-8-8-|
|-------------------------------6--6--6-6-6-6-6-6-6-6-6-6-6-6-6-6-|
    . . . . . . . . . . . . . . .  .  . . . . . . . . . . . . . .


|------------------------------------------------------------------|
|------------------------------------------------------------------|
|------------------------------------------------------------------|
|-1-1-3-3-3-3-3-3-3-3-3-3-3-3-3-3-1-1-1-1-1-1-1-1-1-1-1-1-1-1-1-1--|
|-1-1-3-3-3-3-3-3-3-3-3-3-3-3-3-3-1-1-1-1-1-1-1-1-1-1-1-1-1-1-1-1--|
|-1-1-3-3-3-3-3-3-3-3-3-3-3-3-3-3-1-1-1-1-1-1-1-1-1-1-1-1-1-1-1-1--|
  . . . . . . . . . . . . . . . . . . . . . . . . . . Come out of PM

|-------------------------|
|-------------------------|
|-------------------------|
|-6~-------6~--//////////-|
|-6~---8-6-6~--//////////-|
|-6~-----------//////////-| [x1]

Chorus

|--------------------------------------------------------------------------------------------|
|--------------------------------------------------------------------------------------------|
|-8--8--8--8--8--8--8--8---8-8-8-8-8-8-8-8---8--8--8--12-12-10-10-8-8--8--8--12-12-10-10-8-8-|
|-12-12-12-12-12-12-12-8---8-8-8-8-8-8-8-8---10-10-10-13-13-13-13-8-10-10-10-13-13-13-13-8-8-|
|--------------------------------------------------------------------------------------------|
|---------------------------------------------------------------------------------------[x2]-| 

|------------------------------------------------------------------------------------------------|
|------------------------------------------------------------------------------------------------|
|-------------------------------------15-15-15-15-12-12-12-12-12-12-12-12-10-10-10-10-10-8-8-8-8-|
|-13-13-13-13-13-13-13-13-12-12-12-12------------------------------------------------------------|
|------------------------------------------------------------------------------------------------|
|------------------------------------------------------------------------------------------------|

|--------------------------------------------------------------|
|--------------------------------------------------------------| Not sure
|-8-8-8-7-7-7-8-8-8-7-7-7-7-8-7-5-5-5-5-5-5-5-5-5-5-5-5-5-5-5-5| about this
|--------------------------------------------------------------| part.
|--------------------------------------------------------------| 
|--------------------------------------------------------------| [x1]

Bridge

|---------------------------------------------|
|---------------------------------------------|
|---------------------------------------------|
|---------------------------------------------|
|----10-8~-------------------10-8~------------|
|-10---------6-8-5/6-8-5---10---------6-8-5^~-| [x2]

|-----------------------------------------------------------------|
|-----------------------------------------------------------------|
|-----------------3-3-3-3-3-3-3-3-5-5-5-5-5-5-5-5-7-7-7-7-7-7-7-7-|
|-6-6-6-6-6-6-6-6-x-x-x-x-x-x-x-x-x-x-x-x-x-x-x-x-x-x-x-x-x-x-x-x-|
|-x-x-x-x-x-x-x-x-1-1-1-1-1-1-1-1-3-3-3-3-3-3-3-3-5-5-5-5-5-5-5-5-|
|-6-6-6-6-6-6-6-6-------------------------------------------------|

|-----------------------------------------------------------------------------------------|
|-----------------------------------------------------------------------------------------|
|-8-8-8-8-8-8-8-8-10-10-10-10-10-10-10-10-12-12-12-12-12-12-12-12-12-12-12-12-12-12-12-12-|
|-x-x-x-x-x-x-x-x-x--x--x--x--x--x--x--x--x--x--x--x--x--x--x--x--x--x--x--x--x--x--x--x--|
|-6-6-6-6-6-6-6-6-8--8--8--8--8--8--8--8--10-10-10-10-10-10-10-10-10-10-10-10-10-10-10-10-|
|-----------------------------------------------------------------------------------------|

|---------------------------------|
|---------------------------------|
|---------------------------------|
|-5-5-5-3-3-3-5-5-5-3-3-3-x-x-x-x-|
|-3-3-3-1-1-1-3-3-3-1-1-1-x-x-x-x-|
|-------------------------x-x-x-x-| [x1]

Chorus


|--------------------------------------------------------------------------------------------|
|--------------------------------------------------------------------------------------------|
|-8--8--8--8--8--8--8--8---8-8-8-8-8-8-8-8---8--8--8--12-12-10-10-8-8--8--8--12-12-10-10-8-8-|
|-12-12-12-12-12-12-12-8---8-8-8-8-8-8-8-8---10-10-10-13-13-13-13-8-10-10-10-13-13-13-13-8-8-|
|--------------------------------------------------------------------------------------------|
|---------------------------------------------------------------------------------------[x2]-| 

|------------------------------------------------------------------------------------------------|
|------------------------------------------------------------------------------------------------|
|-------------------------------------15-15-15-15-12-12-12-12-12-12-12-12-10-10-10-10-10-8-8-8-8-|
|-13-13-13-13-13-13-13-13-12-12-12-12------------------------------------------------------------|
|------------------------------------------------------------------------------------------------|
|------------------------------------------------------------------------------------------------|

|--------------------------------------------------------------|
|--------------------------------------------------------------| Not sure
|-8-8-8-7-7-7-8-8-8-7-7-7-7-8-7-5-5-5-5-5-5-5-5-5-5-5-5-5-5-5-5| about this
|--------------------------------------------------------------| part.
|--------------------------------------------------------------| 
|--------------------------------------------------------------| [x1]

Outro

|---------------------------------------------------------------|
|---------------------------------------------------------------|
|-7-7-7-7-7-7-7-7-8-8-8-8-7-7---5-5-5-5-5-5-5-5-5-5-5-5-5-5-5-5-|
|-----------------------------8---------------------------------|
|---------------------------------------------------------------| [x2]

|------------------------------------------------------------------------------------------------|
|------------------------------------------------------------------------------------------------|
|-------------------------------------15-15-15-15-12-12-12-12-12-12-12-12-10-10-10-10-10-8-8-8-8-|
|-13-13-13-13-13-13-13-13-12-12-12-12------------------------------------------------------------|
|------------------------------------------------------------------------------------------------|
|------------------------------------------------------------------------------------------------|

|-------------------------------------|
|-------------------------------------|
|-8-8-8-7-7-7-8-8-8-7-7-7-7-8-7-5~~~~~|
|-------------------------------------|
|-------------------------------------| 
|-------------------------------------| [x1]

GUITAR II

Intro

Wait for Guitar I to play Intro Riff once then:

|----------------------------|
|-16----18-------------------|
|----15----------------------| May be harmonics but I cant figure it out.
|----------/////////////////-|
|----------/////////////////-|
|----------/////////////////-| [x1]

|--------------------------------|-------|
|--------------------------------|-------|
|-5-5-555-3-3-353----------------|-------|
|-5-5-555-1-1-131-6-66-6--6-66-6-|-8-8-8-|
|-3-3-333-1-1-131-6-66-6--6-66-6-|-8-8-8-|
|-----------------6-66-6--6-66-6-|-8-8-8-| [x2] 8's the second time only.

Verse I

|---|------------------------------------------------------------------|
|---|------------------------------------------------------------------|
|-5-|.-5-5-5-5-5-5-5-5-5-5-5-3-3-3-3-----------------------------------|
|-5-|.-5-5-5-5-5-5-5-5-5-5-5-3-3-3-3-6--6--6-6-6-6-6-6-6-6-6-6-6-6-6-6-|
|-3-|--3-3-3-3-3-3-3-3-3-3-3-1-1-1-1-10-10-6-6-6-6-6-6-6-6-6-6-6-8-8-8-|
|---|--------------------------------6--6--6-6-6-6-6-6-6-6-6-6-6-6-6-6-|
  .    . . . . . . . . . . . . . . . .  .  . . . . . . . . . . . . . .

|-----------------------------------------------------------------|----|
|-----------------------------------------------------------------|----|
|-----------------------------------------------------------3-3-3-|-5-.|
|-1-1-3-3-3-3-3-3-3-3-3-3-3-3-3-3-1-1-1-1-1-1-1-1-1-1-1-1-1-x-x-x-|-x-.|
|-1-1-3-3-3-3-3-3-3-3-3-3-3-3-3-3-1-1-1-1-1-1-1-1-1-1-1-1-1-1-1-1-|-3--|
|-1-1-3-3-3-3-3-3-3-3-3-3-3-3-3-3-1-1-1-1-1-1-1-1-1-1-1-1-1-------|----| [x2]
  . . . . . . . . . . . . . . . . . . . . . . . . . . . . .

|-----------------------------------------------------------------|
|-----------------------------------------------------------------|
|-5-5-5-5-5-5-5-5-5-5-5-3-3-3-3-----------------------------------|
|-5-5-5-5-5-5-5-5-5-5-5-3-3-3-3-6--6--6-6-6-6-6-6-6-6-6-6-6-6-6-6-|
|-3-3-3-3-3-3-3-3-3-3-3-1-1-1-1-10-10-6-6-6-6-6-6-6-6-6-6-6-8-8-8-|
|-------------------------------6--6--6-6-6-6-6-6-6-6-6-6-6-6-6-6-|
  . . . . . . . . . . . . . . . .  .  . . . . . . . . . . . . . .


|------------------------------------------------------------------|
|------------------------------------------------------------------|
|------------------------------------------------------------------|
|-1-1-3-3-3-3-3-3-3-3-3-3-3-3-3-3-1-1-1-1-1-1-1-1-1-1-1-1-1-1-1-1--|
|-1-1-3-3-3-3-3-3-3-3-3-3-3-3-3-3-1-1-1-1-1-1-1-1-1-1-1-1-1-1-1-1--|
|-1-1-3-3-3-3-3-3-3-3-3-3-3-3-3-3-1-1-1-1-1-1-1-1-1-1-1-1-1-1-1-1--|
  . . . . . . . . . . . . . . . . . . . . . . . . . . Come out of PM

|-------------------------|
|-------------------------|
|-------------------------|
|-6~-----------//////////-|
|-6~-----------//////////-|
|-6~-----------//////////-| [x1]

Chorus

|--------------------------------------------------------------|
|--------------------------------------------------------------|
|-5-5-5-5-5-5-5-3--3-3-3-3-3-3---------------------------------|
|-5-5-5-5-5-5-5-3--3-3-3-3-3-3-6-6-6-6-6-6-6-6-6-6-6-6-6-6-6-6-|
|-3-3-3-3-3-3-3-1--1-1-1-1-1-1-6-6-6-6-6-6-6-6-6-6-6-6-6-6-6-6-|
|------------------------------6-6-6-6-6-6-6-6-6-6-6-6-6-6-6-6-|

|------------------------------------------------|
|------------------------------------------------|
|-5-5-5-5-5-5-5-3--3-3-3-3-3-3-------------------|
|-5-5-5-5-5-5-5-3--3-3-3-3-3-3-6-66-66-6-66-6666-|
|-3-3-3-3-3-3-3-1--1-1-1-1-1-1-6-66-66-6-66-6666-|
|------------------------------6-66-66-6-66-6666-|

|------------------------------------------------------------------|
|------------------------------------------------------------------|
|-3-3-3-3-3-3-3-3-5-5-5-5-5-5-5-5-8-8-8-8-8-8-8-8-8-8-8-8-8-8-8-8--|
|-3-3-3-3-3-3-3-3-5-5-5-5-5-5-5-5-8-8-8-8-8-8-8-8-8-8-8-8-8-8-8-8--|
|-1-1-1-1-1-1-1-1-3-3-3-3-3-3-3-3-6-6-6-6-6-6-6-6-6-6-6-6-6-6-6-6--|
|------------------------------------------------------------------|

|----------------------------------------------|
|----------------------------------------------|
|-5-5-5-5-5-5-3-3-3-3-3-3-3-5-3----------------|
|-5-5-5-5-5-5-3-3-3-3-3-3-3-5-3-6--------8-8-8-|
|-3-3-3-3-3-3-1-1-1-1-1-1-1-3-1-6--------8-8-8-|
|-------------------------------6--------8-8-8-| [x1]

Verse II

|------------------------------------------------------------------|
|------------------------------------------------------------------|
|--5-5-5-5-5-5-5-5-5-5-5-3-3-3-3-----------------------------------|
|--5-5-5-5-5-5-5-5-5-5-5-3-3-3-3-6--6--6-6-6-6-6-6-6-6-6-6-6-6-6-6-|
|--3-3-3-3-3-3-3-3-3-3-3-1-1-1-1-10-10-6-6-6-6-6-6-6-6-6-6-6-8-8-8-|
|--------------------------------6--6--6-6-6-6-6-6-6-6-6-6-6-6-6-6-|
   . . . . . . . . . . . . . . . .  .  . . . . . . . . . . . . . .

|-----------------------------------------------------------------|
|-----------------------------------------------------------------|
|-----------------------------------------------------------3-3-3-|
|-1-1-3-3-3-3-3-3-3-3-3-3-3-3-3-3-1-1-1-1-1-1-1-1-1-1-1-1-1-x-x-x-|
|-1-1-3-3-3-3-3-3-3-3-3-3-3-3-3-3-1-1-1-1-1-1-1-1-1-1-1-1-1-1-1-1-|
|-1-1-3-3-3-3-3-3-3-3-3-3-3-3-3-3-1-1-1-1-1-1-1-1-1-1-1-1-1-------| [x1]
  . . . . . . . . . . . . . . . . . . . . . . . . . . . . .

|-----------------------------------------------------------------|
|-----------------------------------------------------------------|
|-5-5-5-5-5-5-5-5-5-5-5-3-3-3-3-----------------------------------|
|-x-5-5-5-5-5-5-5-5-5-5-3-3-3-3-6--6--6-6-6-6-6-6-6-6-6-6-6-6-6-6-|
|-3-3-3-3-3-3-3-3-3-3-3-1-1-1-1-10-10-6-6-6-6-6-6-6-6-6-6-6-8-8-8-|
|-------------------------------6--6--6-6-6-6-6-6-6-6-6-6-6-6-6-6-|
    . . . . . . . . . . . . . . .  .  . . . . . . . . . . . . . .


|------------------------------------------------------------------|
|------------------------------------------------------------------|
|------------------------------------------------------------------|
|-1-1-3-3-3-3-3-3-3-3-3-3-3-3-3-3-1-1-1-1-1-1-1-1-1-1-1-1-1-1-1-1--|
|-1-1-3-3-3-3-3-3-3-3-3-3-3-3-3-3-1-1-1-1-1-1-1-1-1-1-1-1-1-1-1-1--|
|-1-1-3-3-3-3-3-3-3-3-3-3-3-3-3-3-1-1-1-1-1-1-1-1-1-1-1-1-1-1-1-1--|
  . . . . . . . . . . . . . . . . . . . . . . . . . . Come out of PM

|-------------------------|
|-------------------------|
|-------------------------|
|-6~-----------//////////-|
|-6~-----------//////////-|
|-6~-----------//////////-| [x1]


Chorus

|--------------------------------------------------------------|
|--------------------------------------------------------------|
|-5-5-5-5-5-5-5-3--3-3-3-3-3-3---------------------------------|
|-5-5-5-5-5-5-5-3--3-3-3-3-3-3-6-6-6-6-6-6-6-6-6-6-6-6-6-6-6-6-|
|-3-3-3-3-3-3-3-1--1-1-1-1-1-1-6-6-6-6-6-6-6-6-6-6-6-6-6-6-6-6-|
|------------------------------6-6-6-6-6-6-6-6-6-6-6-6-6-6-6-6-|

|------------------------------------------------|
|------------------------------------------------|
|-5-5-5-5-5-5-5-3--3-3-3-3-3-3-------------------|
|-5-5-5-5-5-5-5-3--3-3-3-3-3-3-6-66-66-6-66-6666-|
|-3-3-3-3-3-3-3-1--1-1-1-1-1-1-6-66-66-6-66-6666-|
|------------------------------6-66-66-6-66-6666-|

|------------------------------------------------------------------|
|------------------------------------------------------------------|
|-3-3-3-3-3-3-3-3-5-5-5-5-5-5-5-5-8-8-8-8-8-8-8-8-8-8-8-8-8-8-8-8--|
|-3-3-3-3-3-3-3-3-5-5-5-5-5-5-5-5-8-8-8-8-8-8-8-8-8-8-8-8-8-8-8-8--|
|-1-1-1-1-1-1-1-1-3-3-3-3-3-3-3-3-6-6-6-6-6-6-6-6-6-6-6-6-6-6-6-6--|
|------------------------------------------------------------------|

|-----------------------------------------|
|-----------------------------------------|
|-5-5-5-5-5-5-3-3-3-3-3-3-3-5-3-----------|
|-5-5-5-5-5-5-3-3-3-3-3-3-3-5-3-6---------|
|-3-3-3-3-3-3-1-1-1-1-1-1-1-3-1-6---------|
|-------------------------------6---------| [x1]

Bridge

|-------------------------|
|-------------------------|
|--8--8--8--8--8--7--7--7-|
|--10-10-10-10-10-8--8--8-|
|--10-10-10-10-10-10-10-10| [x4] Off Beats I think.
|-------------------------|

|-----------------------------------------------------------------|
|-----------------------------------------------------------------|
|-----------------3-3-3-3-3-3-3-3-5-5-5-5-5-5-5-5-7-7-7-7-7-7-7-7-|
|-6-6-6-6-6-6-6-6-x-x-x-x-x-x-x-x-x-x-x-x-x-x-x-x-x-x-x-x-x-x-x-x-|
|-x-x-x-x-x-x-x-x-1-1-1-1-1-1-1-1-3-3-3-3-3-3-3-3-5-5-5-5-5-5-5-5-|
|-6-6-6-6-6-6-6-6-------------------------------------------------|

|-----------------------------------------------------------------------------------------|
|-----------------------------------------------------------------------------------------|
|-8-8-8-8-8-8-8-8-10-10-10-10-10-10-10-10-12-12-12-12-12-12-12-12-12-12-12-12-12-12-12-12-|
|-x-x-x-x-x-x-x-x-x--x--x--x--x--x--x--x--x--x--x--x--x--x--x--x--x--x--x--x--x--x--x--x--|
|-6-6-6-6-6-6-6-6-8--8--8--8--8--8--8--8--10-10-10-10-10-10-10-10-10-10-10-10-10-10-10-10-|
|-----------------------------------------------------------------------------------------|

|---------------------------------|
|---------------------------------|
|---------------------------------|
|-5-5-5-3-3-3-5-5-5-3-3-3-x-x-x-x-|
|-3-3-3-1-1-1-3-3-3-1-1-1-x-x-x-x-|
|-------------------------x-x-x-x-| [x1]

Chorus


|--------------------------------------------------------------|
|--------------------------------------------------------------|
|-5-5-5-5-5-5-5-3--3-3-3-3-3-3---------------------------------|
|-5-5-5-5-5-5-5-3--3-3-3-3-3-3-6-6-6-6-6-6-6-6-6-6-6-6-6-6-6-6-|
|-3-3-3-3-3-3-3-1--1-1-1-1-1-1-6-6-6-6-6-6-6-6-6-6-6-6-6-6-6-6-|
|------------------------------6-6-6-6-6-6-6-6-6-6-6-6-6-6-6-6-|

|------------------------------------------------|
|------------------------------------------------|
|-5-5-5-5-5-5-5-3--3-3-3-3-3-3-------------------|
|-5-5-5-5-5-5-5-3--3-3-3-3-3-3-6-66-66-6-66-6666-|
|-3-3-3-3-3-3-3-1--1-1-1-1-1-1-6-66-66-6-66-6666-|
|------------------------------6-66-66-6-66-6666-|

|------------------------------------------------------------------|
|------------------------------------------------------------------|
|-3-3-3-3-3-3-3-3-5-5-5-5-5-5-5-5-8-8-8-8-8-8-8-8-8-8-8-8-8-8-8-8--|
|-3-3-3-3-3-3-3-3-5-5-5-5-5-5-5-5-8-8-8-8-8-8-8-8-8-8-8-8-8-8-8-8--|
|-1-1-1-1-1-1-1-1-3-3-3-3-3-3-3-3-6-6-6-6-6-6-6-6-6-6-6-6-6-6-6-6--|
|------------------------------------------------------------------|

|------------------------------------------------|
|------------------------------------------------|
|-5-5-5-5-5-5-3-3-3-3-3-3-3-5-3------------------|
|-5-5-5-5-5-5-3-3-3-3-3-3-3-5-3-6-6-6-6-6-6-6-6--|
|-3-3-3-3-3-3-1-1-1-1-1-1-1-3-1-6-6-6-6-6-6-6-6--|
|-------------------------------6-6-6-6-6-6-6-6--| [x1]

Outro

|--------------------------------------------------------------|
|--------------------------------------------------------------|
|-5-5-5-5-5-5-5-3--3-3-3-3-3-3---------------------------------|
|-5-5-5-5-5-5-5-3--3-3-3-3-3-3-6-6-6-6-6-6-6-6-6-6-6-6-6-6-6-6-|
|-3-3-3-3-3-3-3-1--1-1-1-1-1-1-6-6-6-6-6-6-6-6-6-6-6-6-6-6-6-6-|
|------------------------------6-6-6-6-6-6-6-6-6-6-6-6-6-6-6-6-|

|------------------------------------------------|
|------------------------------------------------|
|-5-5-5-5-5-5-5-3--3-3-3-3-3-3-------------------|
|-5-5-5-5-5-5-5-3--3-3-3-3-3-3-6-66-66-6-66-6666-|
|-3-3-3-3-3-3-3-1--1-1-1-1-1-1-6-66-66-6-66-6666-|
|------------------------------6-66-66-6-66-6666-|

|------------------------------------------------------------------|
|------------------------------------------------------------------|
|-3-3-3-3-3-3-3-3-5-5-5-5-5-5-5-5-8-8-8-8-8-8-8-8-8-8-8-8-8-8-8-8--|
|-3-3-3-3-3-3-3-3-5-5-5-5-5-5-5-5-8-8-8-8-8-8-8-8-8-8-8-8-8-8-8-8--|
|-1-1-1-1-1-1-1-1-3-3-3-3-3-3-3-3-6-6-6-6-6-6-6-6-6-6-6-6-6-6-6-6--|
|------------------------------------------------------------------|

|----------------------|
|----------------------|
|-5-3-5-3-3-5-3--------|
|-5-3-5-3-3-5-3-6~-----|
|-3-1-3-1-1-3-1-6~-----|
|---------------6~-----| [x1]

I think is MOSTLY accurate.
Leave comments and stuff If you think somethings different.

| /  slide up
| \  slide down
| h  hammer-on
| p  pull-off
| ~  vibrato
| +  harmonic
| x  Mute note
===============================================================================
comments
print report bad tab
3 comments total.
0 reply
xxblazinaznxx wrote on March 22 2008, 05:33 pm

Nice tab. Best one of this song I've seen on here. 5 stars.

0 reply
stoff wrote on June 14 2008, 03:49 pm

thank you thank you thank you for tabbing out that intro the rest is great as well but i couldnt get the intro right 5/5

0 reply
nickelback fan wrote on December 23 2008, 03:22 pm

excelent tab dude really helps 5/5 all the way

I want to post or [tab]
guest
You may want to rate the tab now too:
select rating
Please do not post tabs as comments. Select "correction" instead!