Oops, an error
Loading. Please wait.

Texas Mickey Tab

ver1
ver1

Whole song

Interactive

More versions @911Tabs.com
1,312 views 3 this week
no commentswrite comment
1 2 3 4 5
please rate
Autoscroll
+/-
esc
set tempo
stop
Contributor
Difficulty
Tuning
intermediate
C# G# C# F# A# D#
Hey! There's an official Ultimate Guitar app which is ideal
for learning songs when you're away from computer. Get the app
WARNING: You are trying to view
                                    content from Ultimate-Guitar.com
                                    in an unauthorized application,
                                    which is prohibited.

                                    Please use an official Ultimate
                                    Guitar Tabs application for iPhone,
                                    iPad or Android to access legitimate
                                    chords, guitar, bass, and drum tabs
                                    from Ultimate-Guitar.com database.

                                    Type "ultimate guitar tabs" in Apple
                                    App Store's or Android Market's
                                    search to find the application.
****** Right I, JAMIE HARKER MADE THE ORIGINAL TAB OFTHIS*********
I PUT EVERYTHING IN ORDER SO ITS REPEATED IN SOME PLACES ,,,, AND ITS REALLLY ACCURATE***********
INTRO PLAY IN PINCH HARMONICS
d#|-------------------------------------------------------------------------|
a#|-------------------------------------------------------------------------|
f#|-------------------------------------------------------------------------|
c#|-------------------999-1010-)--------------------------------------------|
g#|--000-777-88-1010-----------)X4------------------------------------------|
d#|----------------------------)--------------------------------------------|

----------------------------------------------------------------------------
VERSE I

d#|-------------------------------------------------------------------------|
a#|-------------------------------------------------------------------------|
f#|-------------------------------------------------------------------------|
c#|--7-7-7-7-x-7-7-7-7-x-7-7-7-5--55555555555-------------------------------|
g#|--7-7-7-7-x-7-7-7-7-x-7-7-7-5--55555555555-------------------------------|
d#|--5-5-5-5-x-5-5-5-5-x-5-5-5-3--33333333333-------------------------------|
DO THAT X2!!!!!!!!!!!!!!!!!!

----------------------------------------------------------------------------

CHORUS I

d#|-------------------------------------------------------------------------|
a#|-------------------------------------------------------------------------|
f#|-------------------------------------------------------------------------|
c#|--7-7-777--5-5-555--7-7-777--3-3-333--3-3-333--5-5-555-------------------|
g#|--7-7-777--5-5-555--7-7-777--3-3-333--3-3-333-5-5-555--------------------|
d#|--5-5-555--3-3-333--5-5-555--1-1-111--1-1-111--3-3-333-------------------|
Do ThAT X1!!!!!!!!!!

----------------------------------------------------------------------------


LITTLE FILL AFTER CHORUS I

PLAY IN PINCH HARMONICS
d#|-------------------------------------------------------------------------|
a#|-------------------------------------------------------------------------|
f#|-------------------------------------------------------------------------|
c#|--------------------999-1010-777777777-----------------------------------|
g#|-000-777-88-101010-----------777777777-----------------------------------|
d#|-----------------------------555555555-----------------------------------|
ONL DO THIS X1 !!!!!!!!!!!!!!!!!!!!!!!!!

----------------------------------------------------------------------------


VERSE II

                         THESE ARE JUST POWER CHORDS AT 8 AND 10 There just messed up
d#|--------------------------------------------------------------------------|
a#|--------------------------------------------------------------------------|
f#|--------------------------------------------------------------------------|
c#|--77-777-7-7-7-777-10101010-10-10-10105-5-555-5-5-5-555--3-3-333-3-3-3-33-|
g#|--77-777-7-7-7-777-10101010-10-10-10105-5-555-5-5-5-555--3-3-333-3-3-3-33-|
d#|--55-555-5-5-5-555--88-888-8-8-8-888--3-3-333-3-3-3-333--1-1-111-1-1-1-11-|
DO THIS X2

----------------------------------------------------------------------------

ANOTHER FILL

PLAY IN PINCH HARMONICS

d#|--------------------------------------------------------------------------|
a#|--------------------------------------------------------------------------|
f#|--------------------------------------------------------------------------|
c#|--------------------999-1010-------------------999-1010-------------------|
g#|--000-777-88-101010----------000-777-88-101010----------------------------|
d#|--------------------------------------------------------------------------|
ONLY ONCE !!!!!!!!!!!!!!!!!!!!!!!!
----------------------------------------------------------------------------
NOW THIS IS WHERE THE SONG STARTS TO REPEAT

VERSE I

d#|-------------------------------------------------------------------------|
a#|-------------------------------------------------------------------------|
f#|-------------------------------------------------------------------------|
c#|--7-7-7-7-x-7-7-7-7-x-7-7-7-5--55555555555-------------------------------|
g#|--7-7-7-7-x-7-7-7-7-x-7-7-7-5--55555555555-------------------------------|
d#|--5-5-5-5-x-5-5-5-5-x-5-5-5-3--33333333333-------------------------------|
DO THAT X2!!!!!!!!!!!!!!!!!!

----------------------------------------------------------------------------
CHORUS I
d#|-------------------------------------------------------------------------|
a#|-------------------------------------------------------------------------|
f#|-------------------------------------------------------------------------|
c#|--7-7-777--5-5-555--7-7-777--3-3-333--3-3-333--5-5-555-------------------|
g#|--7-7-777--5-5-555--7-7-777--3-3-333--3-3-333--5-5-555-------------------|
d#|--5-5-555--3-3-333--5-5-555--1-1-111--1-1-111--3-3-333-------------------|
Do ThAT X1!!!!!!!!!!

----------------------------------------------------------------------------

LITTLE FILL AFTER CHORUS I

PLAY IN PInCH HARMONICS
d#|-------------------------------------------------------------------------|
a#|-------------------------------------------------------------------------|
f#|-------------------------------------------------------------------------|
c#|--------------------999-1010-777777777-----------------------------------|
g#|-000-777-88-101010-----------777777777-----------------------------------|
d#|-----------------------------555555555-----------------------------------|
ONL DO THIS X1 !!!!!!!!!!!!!!!!!!!!!!!!!

----------------------------------------------------------------------------


VERSE II

                         THESE ARE JUST POWER CHORDS AT 8 AND 10 There just messed up
d#|--------------------------------------------------------------------------|
a#|--------------------------------------------------------------------------|
f#|--------------------------------------------------------------------------|
c#|--77-777-7-7-7-777-10101010-10-10-10105-5-555-5-5-5-555--3-3-333-3-3-3-33-|
g#|--77-777-7-7-7-777-10101010-10-10-10105-5-555-5-5-5-555--3-3-333-3-3-3-33-|
d#|--55-555-5-5-5-555--88-888-8-8-8-888--3-3-333-3-3-3-333--1-1-111-1-1-1-11-|
DO THIS X2

----------------------------------------------------------------------------


NOW ANTHONY RANERI STARTS SINGING
" LOOKING BACK, ALL THE STUPID DRAMA..."
LET THE NOTES RING

d#|-------------------------------------------------------------------------------|
a#|-------------------------------------------------------------------------------|
f#|-------------------------------------------------------------------------------|
c#|------9----7------5--7-7-7---5-5-5---3-3-3---/10-9-----------------------------|
g#|---7-----5------3----7-7-7---5-5-5---3-3-3---------10--\7----------------------|
d#|-5-----3-------1-----5-5-5---3-3-3---1-1-1-------------------------------------|
X1
----------------------------------------------------------------------------


d#|-------------------------------------------------------------------------|
a#|-------------------------------------------------------------------------|
f#|-------------------------------------------------------------------------|
c#|--7-7-7---5-5-5---3-3-3--------------------------------------------------|
g#|--7-7-7---5-5-5---3-3-3--------------------------------------------------|
d#|--5-5-5---3-3-3---1-1-1--------------------------------------------------|
X1
----------------------------------------------------------------------------

d#|-----------------------------------------------------------------------|
a#|-----------------------------------------------------------------------|
f#|--9-7-9---9-7-5-7-5-4-5-4-5---5-4-5-7----------------------------------|
c#|--x-x-x---x-x-x-x-x-x-x-x-x---x-x-x-x----------------------------------|
g#|--7-5-7---7-5-3-5-3-2-3-2-3---3-2-3-5----------------------------------|
d#|-----------------------------------------------------------------------|
THIS X3 !!!!!!!!!!!!!!!!!!!!!!!!!!!!!!!!!!!!!!!!!!!!!!!!!!!!!

----------------------------------------------------------------------------

d#|-------------------------------------------------------------------------|
a#|-------------------------------------------------------------------------|
f#|--9-7-5-7-5-4-5----------------------------------------------------------|
c#|--x-x-x-x-x-x-x----------------------------------------------------------|
g#|--7-5-3-5-3-2-3----------------------------------------------------------|
d#|-------------------------------------------------------------------------|


                                    END OF SONG ALL TABBED BY ME  IRST TAB ON INTERNET
OF THIS SONG IVE GOT PLENT MORE TABS OF SONGS FROM RESCUE ON MY PROFILE ICLUDING FORGET
YOUR HEART AND IN MEMORY OF xx
comments
We did not receive enough feedback on this tab! Please rate:
print report bad tab
1 2 3 4 5
I want to post or [tab]
guest
You may want to rate the tab now too:
select rating
Please do not post tabs as comments. Select "correction" instead!