Oops, an error
Loading. Please wait.

The Artist Tab

ver2
ver2

Whole song

More versions @911Tabs.com
446 views 1 this week
no commentswrite comment
1 2 3 4 5
please rate
Autoscroll
+/-
esc
set tempo
stop
Contributor
Difficulty
Tuning
intermediate
C# G# C# F# A# D#
WARNING: You are trying to view
                                    content from Ultimate-Guitar.com
                                    in an unauthorized application,
                                    which is prohibited.

                                    Please use an official Ultimate
                                    Guitar Tabs application for iPhone,
                                    iPad or Android to access legitimate
                                    chords, guitar, bass, and drum tabs
                                    from Ultimate-Guitar.com database.

                                    Type "ultimate guitar tabs" in Apple
                                    App Store's or Android Market's
                                    search to find the application.
Tabbed by: Joshua Garcia (joshuag523@aol.com)

Tabs for the song: The Artist by Silverstein
Please rate and let me know if you have any corrections. Thank you.


**NOTE - This was taken from my full album tab, which can be found here: 
http://tabs.ultimate-guitar.com/s/silverstein/rescue_album_tab.htm **


Tuning: Drop C# (C# G# C# F# A# D#)



Intro
Guitar 1/2:
D#||------------|------------|
A#||------------|------------|
F#||------------|------------|
C#||--pick------|--pick------|
G#||-----slide--|-----slide--|
C#||------------|------------|



Verse
Guitar 1:
D#||----------------------------------|
A#||-----6-----6-6-6-----6-----5-5-5--|
F#||-----7-----7-7-7-----7-----6-6-6--|
C#||--0----8----------5----7----------| x2
G#||--0----8----------5----7----------|
C#||--0----8----------5----7----------|


D#||----------------------------------------|
A#||----------------------------------------|
F#||--7-7--10---14-12-10--10-10-9---10-9-5--|
C#||--x-x--x----x--x--x---x--x--x---x--x-x--|
G#||--5-5--8----12-10-8---8--8--7---8--7-3--|
C#||----------------------------------------|


D#||----------------------------------------|
A#||----------------------------------------|
F#||--7-7--10---14-12-10--10-10-9---9-10-12-|
C#||--x-x--x----x--x--x---x--x--x---x-x--x--|
G#||--5-5--8----12-10-8---8--8--7---7-8--10-|
C#||----------------------------------------|


Guitar 2:
D#||---------------------------------|
A#||---------------------------------|
F#||---------------------------------|
C#||--0-0--8---8-8-8--5-5-7---7-7-7--| x4
G#||--0-0--8---8-8-8--5-5-7---7-7-7--|
C#||--0-0--8---8-8-8--5-5-7---7-7-7--|



Chorus
Guitar 1:
D#||----------------------------------------------------------------------|
A#||----------------------------------------------------------------------|
F#||-----------------------------------------0----------------------------|
C#||-------------0-3-2-----------------0-3-2-----------------0-3-2h3p2----|
G#||-0000~--00---------3---0000~--00-------------0000~---00------------3--|
C#||-0000~--00-------------0000~--00-------------0000~---00---------------|
     ....   ..             ....   ..             ....    ..

D#||------------|
A#||------------|
F#||-3333-------|
C#||-3333-1111--|
G#||-1111-1111--|
C#||------1111--|


D#||----------------------------------------------------------------------|
A#||----------------------------------------------------------------------|
F#||-----------------------------------------0----------------------------|
C#||-------------0-3-2-----------------0-3-2-----------------0-3-2h3p2----|
G#||-0000~--00---------3---0000~--00-------------0000~---00------------3--|
C#||-0000~--00-------------0000~--00-------------0000~---00---------------|
     ....   ..             ....   ..             ....    ..

D#||----------|
A#||----------|
F#||-3333-----|
C#||-3333-1---|
G#||-1111-1---|
C#||------1---|


Guitar 2:
D#||----------------------------------------------------------------------|
A#||----------------------------------------------------------------------|
F#||---------------2-0-----------------------------------------2-0h2p0----|
C#||-------------3-----2-----------------0---2---------------3---------2--|
G#||-0000~--00-------------0000~--00---1---3-----0000~---00---------------|
C#||-0000~--00-------------0000~--00-------------0000~---00---------------|
     ....   ..             ....   ..             ....    ..

D#||------------|
A#||------------|
F#||-3333-------|
C#||-3333-1111--|
G#||-1111-1111--|
C#||------1111--|


D#||----------------------------------------------------------------------|
A#||----------------------------------------------------------------------|
F#||---------------2-0-----------------------------------------2-0h2p0----|
C#||-------------3-----2-----------------0---2---------------3---------2--|
G#||-0000~--00-------------0000~--00---1---3-----0000~---00---------------|
C#||-0000~--00-------------0000~--00-------------0000~---00---------------|
     ....   ..             ....   ..             ....    ..

D#||----------|
A#||----------|
F#||-3333-----|
C#||-3333-1---|
G#||-1111-1---|
C#||------1---|



Verse
Guitar 1:
D#||----------------------------------|
A#||-----6-----6-6-6-----6-----5-5-5--|
F#||-----7-----7-7-7-----7-----6-6-6--|
C#||--0----8----------5----7----------| x2
G#||--0----8----------5----7----------|
C#||--0----8----------5----7----------|


D#||----------------------------------------|
A#||----------------------------------------|
F#||--7-7--10---14-12-10--10-10-9---10-9-5--|
C#||--x-x--x----x--x--x---x--x--x---x--x-x--|
G#||--5-5--8----12-10-8---8--8--7---8--7-3--|
C#||----------------------------------------|


D#||----------------------------------------|
A#||----------------------------------------|
F#||--7-7--10---14-12-10--10-10-9---9-10-12-|
C#||--x-x--x----x--x--x---x--x--x---x-x--x--|
G#||--5-5--8----12-10-8---8--8--7---7-8--10-|
C#||----------------------------------------|


Guitar 2:
D#||---------------------------------|
A#||---------------------------------|
F#||---------------------------------|
C#||--0-0--8---8-8-8--5-5-7---7-7-7--| x4
G#||--0-0--8---8-8-8--5-5-7---7-7-7--|
C#||--0-0--8---8-8-8--5-5-7---7-7-7--|



Chorus
Guitar 1:
D#||----------------------------------------------------------------------|
A#||----------------------------------------------------------------------|
F#||-----------------------------------------0----------------------------|
C#||-------------0-3-2-----------------0-3-2-----------------0-3-2h3p2----|
G#||-0000~--00---------3---0000~--00-------------0000~---00------------3--|
C#||-0000~--00-------------0000~--00-------------0000~---00---------------|
     ....   ..             ....   ..             ....    ..

D#||------------|
A#||------------|
F#||-3333-------|
C#||-3333-1111--| x2
G#||-1111-1111--|
C#||------1111--|


Guitar 2:
D#||----------------------------------------------------------------------|
A#||----------------------------------------------------------------------|
F#||---------------2-0-----------------------------------------2-0h2p0----|
C#||-------------3-----2-----------------0---2---------------3---------2--|
G#||-0000~--00-------------0000~--00---1---3-----0000~---00---------------|
C#||-0000~--00-------------0000~--00-------------0000~---00---------------|
     ....   ..             ....   ..             ....    ..

D#||------------|
A#||------------|
F#||-3333-------|
C#||-3333-1111--|
G#||-1111-1111--| x2
C#||------1111--|



Bridge
Guitar 1:
D#||------------------------------------------|
A#||------------6---6~------------------------|
F#||------------7---7~-------3-3--------------|
C#||---0~--------------------3-3---1---3--1---| x2
G#||---0~--------------------1-1---1---3--1---|
C#||---0~--------------------------1---3--1---|


Guitar 2:
D#||------------------------------------------|
A#||------------------------------------------|
F#||-------------------------3-3--------------|
C#||---0~--------------------3-3---1---3--1---|
G#||---0~--------------------1-1---1---3--1---|
C#||---0~--------------------------1---3--1---|


D#||------------------------------------------|
A#||------------------------------------------|
F#||------------7---7~-------3-3--------------|
C#||---0~-------x---x--------3-3---1---3--1---|
G#||---0~-------5---5~-------1-1---1---3--1---|
C#||---0~--------------------------1---3--1---|


Guitar 1:
D#||--------------------------------------|
A#||-----------------------------6---6----|
F#||-----------------------------7---7----|
C#||--------------------------------------|
G#||--0-0-0-0-0-0-0-0-0-0-0-0-0----0------|
C#||--0-0-0-0-0-0-0-0-0-0-0-0-0----0------|
      . . . . . . . . . . . . .    .

D#||--------------------------------------|
A#||--------------------------------------|
F#||-------------------3-3----------------|
C#||-------------------3-3---1---3--1-----| x2
G#||--0-0-0-0-0-0-0-0--1-1---1---3--1-----|
C#||--0-0-0-0-0-0-0-0--------1---3--1-----|
      . . . . . . . .


Guitar 2:
D#||--------------------------------------|
A#||--------------------------------------|
F#||-----------------------------7---7----|
C#||-----------------------------x---x----|
G#||--0-0-0-0-0-0-0-0-0-0-0-0-0--5-0-5----|
C#||--0-0-0-0-0-0-0-0-0-0-0-0-0----0------|
      . . . . . . . . . . . . .    .

D#||--------------------------------------|
A#||--------------------------------------|
F#||-------------------3-3----------------|
C#||-------------------3-3---1---3--1-----| x2
G#||--0-0-0-0-0-0-0-0--1-1---1---3--1-----|
C#||--0-0-0-0-0-0-0-0--------1---3--1-----|
      . . . . . . . .



Verse
Guitar 1:
D#||----------------------------------|
A#||-----6-----6-6-6-----6-----5-5-5--|
F#||-----7-----7-7-7-----7-----6-6-6--|
C#||--0----8----------5----7----------| x2
G#||--0----8----------5----7----------|
C#||--0----8----------5----7----------|


D#||----------------------------------------|
A#||----------------------------------------|
F#||--7-7--10---14-12-10--10-10-9---10-9-5--|
C#||--x-x--x----x--x--x---x--x--x---x--x-x--|
G#||--5-5--8----12-10-8---8--8--7---8--7-3--|
C#||----------------------------------------|


D#||---------------------------------------------------------------|
A#||---------------------------------------------------------------|
F#||--7-7--10---14-12-10--10-10-10-10-10-10-10/12-9-9-9-9-9-9-9-9--|
C#||--x-x--x----x--x--x---x--x--x--x--x--x--x-/x--x-x-x-x-x-x-x-x--|
G#||--5-5--8----12-10-8---8--8--8--8--8--8--8-/10-7-7-7-7-7-7-7-7--|
C#||---------------------------------------------------------------|


Guitar 2:
D#||---------------------------------|
A#||---------------------------------|
F#||---------------------------------|
C#||--0-0--8---8-8-8--5-5-7---7-7-7--| x3
G#||--0-0--8---8-8-8--5-5-7---7-7-7--|
C#||--0-0--8---8-8-8--5-5-7---7-7-7--|


D#||---------------------------------------------------|
A#||---------------------------------------------------|
F#||---------------------------------------------------|
C#||--0-0--8---8-8-8--5-5-5-5-5-5-5-5-7-7-7-7-7-7-7-7--| x3
G#||--0-0--8---8-8-8--5-5-5-5-5-5-5-5-7-7-7-7-7-7-7-7--|
C#||--0-0--8---8-8-8--5-5-5-5-5-5-5-5-7-7-7-7-7-7-7-7--|



Bridge
Guitar 1:
D#||---0---0---------0---0---------5-------------|---0---0---------0---0---------------|
A#||-----6---6---------6---6-----6---6---6-8-6---|-----6---6---------6---6-----6-8-6---|
F#||---------------------------5-------5---------|---------------------------5---------|
C#||---------------------------------------------|-------------------------------------| x4
G#||---------------------------------------------|-------------------------------------|
C#||---------------------------------------------|-------------------------------------|
                               . .     . .                                   . .


Guitar 2:
D#||---------------------------------------------------------|
A#||---------------------------------------------------------|
F#||---------------------------------------------------------|
C#||--00000000000000000000-10101010101010101010101010101010--|
G#||--00000000000000000000-10101010101010101010101010101010--|
C#||--00000000000000000000-10101010101010101010101010101010--|


D#||-----------------------------------------|
A#||-----------------------------------------|
F#||-----------------------------------------|
C#||--88888888888888888888-0000000000000000--|
G#||--88888888888888888888-0000000000000000--|
C#||--88888888888888888888-0000000000000000--|


D#||---------------------------------------------------------|
A#||---------------------------------------------------------|
F#||---------------------------------------------------------|
C#||--00000000000000000000-10101010101010101010101010101010--|
G#||--00000000000000000000-10101010101010101010101010101010--|
C#||--00000000000000000000-10101010101010101010101010101010--|


D#||----------------------------------------------|
A#||----------------------------------------------|
F#||----------------------------------------------|
C#||--88888888888888888888-00000000----------12\--|
G#||--88888888888888888888-00000000000000----12\--|
C#||--88888888888888888888-00000000000000----12\--|
                                   ......


Breakdown
Guitar 1/2:
D#||--------------------------------------------------------|
A#||--------------------------------------------------------|
F#||--------------------------------------------------------|
C#||--------------------------------------------------------|
G#||--0000--00--0000--00------0000--00--0000--00--0000--00--|
C#||--0000--00--0000--00------0000--00--0000--00--0000--00--|
      ....  ..  ....  ..      ....  ..  ....  ..  ....  ..



D#||----------------------------------------------------------------------------|
A#||----------------------------------------------------------------------------|
F#||----------------------------------------------------------------------------|
C#||--8888888888888888-7777777777777777-5555555555555555-333333333333-----------|
G#||--8888888888888888-7777777777777777-5555555555555555-333333333333--0-0-0-0--|
C#||--8888888888888888-7777777777777777-5555555555555555-333333333333--0-0-0-0--|
                                                                       . . . .


D#||----------------------------------------------------------------|
A#||----------------------------------------------------------------|
F#||----------------------------------------------------------------|
C#||--8888888888888888-7777777777777777-5555555555555555-333333333--|
G#||--8888888888888888-7777777777777777-5555555555555555-333333333--|
C#||--8888888888888888-7777777777777777-5555555555555555-333333333--|



Outro
Guitar 1/2:
D#||------------------------------------|
A#||------------------------------------|
F#||------------------------------------|
C#||------------------------------------| x4
G#||--0000--00--0000--00------0000--00--|
C#||--0000--00--0000--00------0000--00--|
      ....  ..  ....  ..      ....  ..




Tablature Legend
----------------
 h   hammer-on
 p   pull-off
 b   bend
 pb  pre-bend
 r   release bend
 ~   hold / vibrato
 .   palm mute
 /   slide up
 \   slide down
 *   pinch harmonic
 '   natural harmonic
 x   mute note
 T   tap
comments
We did not receive enough feedback on this tab! Please rate:
1 2 3 4 5
I want to post or [tab]
guest
You may want to rate the tab now too:
select rating
Please do not post tabs as comments. Select "correction" instead!