Oops, an error
Loading. Please wait.

This Is How The Wind Shifts Bass Tab

518 views 3 this week
1 commentread comment
1 2 3 4 5
excellent!
x 1
Autoscroll
+/-
esc
set tempo
stop
Contributor
Difficulty
intermediate
Hey! There's an official Ultimate Guitar app which is ideal
for learning songs when you're away from computer. Get the app
WARNING: You are trying to view
                                    content from Ultimate-Guitar.com
                                    in an unauthorized application,
                                    which is prohibited.

                                    Please use an official Ultimate
                                    Guitar Tabs application for iPhone,
                                    iPad or Android to access legitimate
                                    chords, guitar, bass, and drum tabs
                                    from Ultimate-Guitar.com database.

                                    Type "ultimate guitar tabs" in Apple
                                    App Store's or Android Market's
                                    search to find the application.
Silverstein
This is How the Wind Shifts

The tunings used in this album are the following;
Drop C# (C# G# C# F)
Half Step Down (D# G# C# F#)
Drop A#  (A# F A# D# G C)

If you find a mistake please email a correction to tomheavens@msn.com.

Also Please Rate :)




1       Stand Amid The Roar

Tuning: Drop C# (C# G# C# F)


Intro
F#||-------------------------------------------------------------------|
C#||---------------------------------------------------------------xx--|
G#||---------------------------------------------------------------xx--|
C#||---------------------------------------------------------------xx--|


Verse
F#||------------------------|-------------------------|
C#||------------------------|-------------------------| x2
G#||------------------------|-------------------------|
C#||--5--55--555------------|--3--33--333-------------|

F#||------------------------|-------------------------|
C#||------------------------|-------------------------| x2
G#||------------------------|-------------------------|
C#||--5--55--555------------|--3--33--333-------------|

F#||------------------------|------------------------|
C#||------------------------|------------------------| x2
G#||--------------55555h6---|------------------------|
C#||--5--55--555------------|--3--33--333--333--333--|


Pre-Chorus
F#||---------------------------------------------|
C#||---------------------------------------------|
G#||---------------------------6--6--6-5~--b4r5--|
C#||--1~--1~---1~---1~---1~----------------------|


Chorus
F#||-----------------------------------------------|
C#||-----------------------------------------------| x4
G#||-----------------------------------------------|
C#||--5--4-------5--4-5------4-5--4-----1---0---4--|


Pre-Verse
F#||-----------------------------------|
C#||-------------------------------xx--|
G#||-------------------------------xx--|
C#||--5~~~~~~~~~~~~~~5~~~~~~~~~~~~-xx--|


Verse
F#||------------------------|-------------------------|
C#||------------------------|-------------------------| x2
G#||------------------------|-------------------------|
C#||--5--55--555------------|--3--33--333-------------|

F#||------------------------|------------------------|
C#||------------------------|------------------------| x2
G#||--------------55555h6---|------------------------|
C#||--5--55--555------------|--3--33--333--333--333--|


Pre-Chorus
F#||---------------------------------------------|
C#||---------------------------------------------|
G#||---------------------------6--6--6-5~--b4r5--|
C#||--1~--1~---1~---1~---1~----------------------|


Chorus
F#||-----------------------------------------------|
C#||-----------------------------------------------| x4
G#||-----------------------------------------------|
C#||--5--4-------5--4-5------4-5--4-----1---0---4--|


Interlude
F#||-------------------------------------------------|
C#||-------------------------------------------------|
G#||-------------------1~-----------3~---------------|
C#||--5~---------------------------------------------|

F#||-------------------------------------------------|
C#||-------------------------------------------------|
G#||-------------------1~-----------3~---6-5---------|
C#||--5~-------------------------------------8-7-----|

F#||-------------------------------------------------------------------|
C#||-------------------------------------------------------------------| x2
G#||------------------1-1-1-1-1-1-1-1-3-3-3-3-3-3-3-3-6-6-6-6-6-6-6-6--|
C#||--5-5-5-5-5-5-5-5--------------------------------------------------|

F#||-------------------------------------------------------------------|
C#||-------------------------------------------------------------------|x4
G#||------------------1-1-1-1-1-1-1-1-3-3-3-3-3-3-3-3------------------|
C#||--5-5-5-5-5-5-5-5---------------------------------1-1-1-1-1-1-1-1--|

F#||-----------------------------------|
C#||-----------------------------------|
G#||-----------------------------------|
C#||--0-0-0-0-0-0-0-0-0-0-0-0-0-0-0-0--|


Chorus
F#||-----------------------------------------------|
C#||-----------------------------------------------|
G#||-----------------------------------------------|
C#||--5~--------------------------------1---0---4--|

F#||-----------------------------------------------|
C#||-----------------------------------------------| x3
G#||-----------------------------------------------|
C#||--5--4-------5--4-5------4-5--4-----1---0---4--|


Chorus
F#||-----------------------------------------------|
C#||-----------------------------------------------| x2
G#||--------1-------------1----------1-------------|
C#||--5--4-------5--4-5------4-5--4-----1---0---4--|











2       On Brave Mountains We Conquer
        Tuning: Drop C# (C# G# C# F#)


Intro / Verse
F#||-------------------------------------------|
C#||-------------------------------------------|
G#||-------------------------------------------|
C#||--0---------------0-0------0-0------0--00--|

F#||-----------------------------------------------------------|
C#||-----------------------------------------------------------|
G#||-----------------------------------------------------------|
C#||-----------------------------0-0---------0-0---------0--0--|

F#||----------------------------------------------------------------------|
C#||----------------------------------------------------------------------|
G#||----------------------------------------------------------------------|
C#||--8~-----------------------5~--------------------1~-------------------|

F#||---------------------------------------------|
C#||---------------------------------------------|
G#||---------------------------------------------|
C#||--0---------------0-0------0-0--x-x-x-x-x-x--|


Verse
F#||-------------------------------------------|
C#||-------------------------------------------|
G#||----5555555555555------555------555--------|
C#||--0---------------0-0------0-0------0--00--|

F#||------------------------------------------------------------------------------|
C#||------------------------------------------------------------------------------|
G#||----5555555555555------555------555--------5555555555555------555------555----|
C#||--0---------------0-0------0-0------0--00----------------0-0------0-0------0--|

F#||-----------------------------------------------------------------|
C#||-----------------------------------------------------------------|
G#||-----------------------------------------------------------------|
C#||--8~-----------------------5~----------------1~------------------|

F#||-------------------------------------------------------|
C#||-------------------------------------------------------|
G#||----5555555555555------555-----------------------------|
C#||--0---------------0-0------0-0--3--5--7-----8~-----7~--|


Chorus
F#||-----------------------------------------------------------------------------|
C#||-----------------------------------------------------------------------------|
G#||--5--5------------------8---8-8---8-8------5--5--4---------------------------|
C#||--------5--xx--xx-8--8------------------------------xx--xx-8--8--3--3333333--|

F#||----------------------------------------------------------------------|
C#||----------------------------------------------------------------------|
G#||------------------------------------5--5--4--44--44-------------------|
C#||--0--0--5--55--55--8--8--3--33--33-------------------8--8--3--33--33--|


Verse
F#||-------------------------------------------|
C#||-------------------------------------------|
G#||----5555555555555------555------555--------|
C#||--0---------------0-0------0-0------0--00--|

F#||------------------------------------------------------------------------------|
C#||------------------------------------------------------------------------------|
G#||----5555555555555------555------555--------5555555555555------555------555----|
C#||--0---------------0-0------0-0------0--00----------------0-0------0-0------0--|

F#||-----------------------------------------------------------------|
C#||-----------------------------------------------------------------|
G#||-----------------------------------------------------------------|
C#||--8~-----------------------5~----------------1~------------------|

F#||-------------------------------------------------------|
C#||-------------------------------------------------------|
G#||----5555555555555------555-----------------------------|
C#||--0---------------0-0------0-0--3--5--7-----8~-----7~--|


Chorus
F#||-----------------------------------------------------------------------------|
C#||-----------------------------------------------------------------------------|
G#||--5--5------------------8---8-8---8-8------5--5--4---------------------------|
C#||--------5--xx--xx-8--8------------------------------xx--xx-8--8--3--3333333--|

F#||----------------------------------------------------------------------|
C#||----------------------------------------------------------------------|
G#||------------------------------------5--5--4--44--44-------------------|
C#||--0--0--5--55--55--8--8--3--33--33-------------------8--8--3--33--33--|


Breakdown
F#||------|
C#||------|
G#||------|
C#||--0~--|

F#||---------------------------------------------------------------|
C#||---------------------------------------------------------------|
G#||---------------------------------------------------------------| x2
C#||----0~----------------3~-----5~----0~/12~-----------3~-----5~--|


Bridge
F#||--------------------------------------------------------------------------|
C#||--------------------------------------------------------------------------|
G#||--------------------------------------------------------------------------|
C#||--0------------------------------0---------------0--00-----0--00----0--0--|

F#||--------------------|
C#||--------------------|
G#||--------------------|
C#||--8~-----7~-----8~--|


Chorus
F#||-----------------------------------------------------------------------------|
C#||-----------------------------------------------------------------------------|
G#||--5--5------------------8---8-8---8-8------5--5--4---------------------------|
C#||--------5--xx--xx-8--8------------------------------xx--xx-8--8--3--3333333--|

F#||----------------------------------------------------------------------|
C#||----------------------------------------------------------------------|
G#||------------------------------------5--5--4--44--44-------------------|
C#||--0--0--5--55--55--8--8--3--33--33-------------------8--8--3--33--33--|


Outro
F#||--------------------------------------------------------------------------|
C#||--------------------------------------------------------------------------|
G#||--------------------------------------------------------------------------|
C#||--0---------------0-0------0-0------0--00-------------------0-0------0-0--|











3       Massachusetts
        Tuning: Drop C# (C# G# C# F#)

Intro
F#||------------------------------------------------|
C#||------------------------------------------------|
G#||--------10-10---8--8----7--7-~-/////------------|
C#||--0-0-------------------------------------------|


Verse
F#||----------------------------------------|
C#||----------------------------------------|
G#||------8------10-------7-----------------|
C#||--0-----10-0----10-0-------8-8-8-8-8//--|

F#||------------------------------------|
C#||------------------------------------|
G#||------8------10------8---7---5---7--|
C#||--0-----10-0----10-0----------------|

F#||----------------------------------------|
C#||----------------------------------------|
G#||------8------10-------7-----------------|
C#||--0-----10-0----10-0-------8-8-8-8-8//--|

F#||-------------------------------------|
C#||-------------------------------------|
G#||-------------------------------------|
C#||--8---8-8---8-8-8---3---33---2---22--|

F#||----------------------------------------|
C#||----------------------------------------|
G#||------8------10-------7-----------------|
C#||--0-----10-0----10-0-------8-8-8-8-8//--|

F#||------------------------------------|
C#||------------------------------------|
G#||------8------10------8---7---5---7--|
C#||--0-----10-0----10-0----------------|

F#||----------------------------------------|
C#||----------------------------------------|
G#||------8------10-------7-----------------|
C#||--0-----10-0----10-0-------8-8-8/17\8---|

F#||----------------------------------------|
C#||----------------------------------------|
G#||----------------------------------------|
C#||--8---8-8---8-8-8---3---33-/-7----7-7---|


Pre Chorus
F#||---------------------------------------------------------------------------|
C#||---------------------------------------------------------------------------|
G#||---------------------------------------------------------------------------|
C#||--888888888888881010101010101010101010-5-888888888888888-1010101010101010--|

F#||-------|
C#||-------|
G#||-------|
C#||-7.----|


Chorus
F#||------------------------------------------------------|
C#||------------------------------------------------------|
G#||------------------------------------------------------|
C#||--0-00-000--8--8-8--8-8-8---3-33-333--10-1010-101010--|

F#||-----------------------------------------------|
C#||-----------------------------------------------|
G#||-----------------------------------------------|
C#||--8-88-888-10-1010-101010--0-00-000--3-33-333--|

F#||------------------------------------------------------|
C#||------------------------------------------------------|
G#||------------------------------------------------------|
C#||--0-00-000--8--8-8--8-8-8---3-33-333--10-1010-101010--|

F#||--------------------------------------------------------------|
C#||--------------------------------------------------------------|
G#||---------------------------5-55-555---------------------------|
C#||--8-88-888-10-1010-101010------------x-x-x-x-x-x-12/////////--|


Verse
F#||------------------------------------|
C#||------------------------------------|
G#||---------------------8---7---5---7--|
C#||------------------------------------|

F#||----------------------------------------|
C#||----------------------------------------|
G#||------8------10-------7-----------------|
C#||--0-----10-0----10-0-------8-8-8-8-8//--|

F#||-------------------------------------|
C#||-------------------------------------|
G#||-------------------------------------|
C#||--8---8-8---8-8-8---3---33---2---22--|

F#||----------------------------------------|
C#||----------------------------------------|
G#||------8------10-------7-----------------|
C#||--0-----10-0----10-0-------8-8-8-8-8//--|

F#||------------------------------------|
C#||------------------------------------|
G#||------8------10------8---7---5---7--|
C#||--0-----10-0----10-0----------------|

F#||----------------------------------------|
C#||----------------------------------------|
G#||------8------10-------7-----------------|
C#||--0-----10-0----10-0-------8-8-8/17\8---|

F#||----------------------------------------|
C#||----------------------------------------|
G#||----------------------------------------|
C#||--8---8-8---8-8-8---3---33-/-7----7-7---|


Pre Chorus
F#||---------------------------------------------------------------------------|
C#||---------------------------------------------------------------------------|
G#||---------------------------------------------------------------------------|
C#||--888888888888881010101010101010101010-5-888888888888888-1010101010101010--|

F#||-------|
C#||-------|
G#||-------|
C#||-7.----|


Chorus
F#||------------------------------------------------------|
C#||------------------------------------------------------|
G#||------------------------------------------------------|
C#||--0-00-000--8--8-8--8-8-8---3-33-333--10-1010-101010--|

F#||-----------------------------------------------|
C#||-----------------------------------------------|
G#||---------------------------5-55-555------------|
C#||--8-88-888-10-1010-101010------------3-33-333--|

F#||------------------------------------------------------|
C#||------------------------------------------------------|
G#||------------------------------------------------------|
C#||--0-00-000--8--8-8--8-8-8---3-33-333--10-1010-101010--|

F#||---------------------------------------------------|
C#||---------------------------------------------------|
G#||---------------------------5-55-555----------------|
C#||--8-88-888-10-1010-101010------------x-x-x-x-x-x---|


Breakdown
F#||-----------------------------------------------------------------------------------------------|
C#||-----------------------------------------------------------------------------------------------|
G#||------------------------------------5-\-------------------------------4------------------------|
C#||-12-\----0-0-0-----0-0-0-0----0-3/5------0-0-0-0-----0-0-0-0----8-5-7-----0-0-0-0-----0-0-0-0--|

F#||---------------------------------------------|
C#||---------------------------------------------|
G#||---------------------------------------------|
C#||--0-5-7-8---8-8-8-8-----8-10-10-10----8-7-5--|

F#||---------------------------------------------------------------------------------------------|
C#||---------------------------------------------------------------------------------------------|
G#||--5-\-----------------------------5-\-------------------------------4------------------------|
C#||-------0-0-0-----0-0-0-0----0-3/5------0-0-0-0-----0-0-0-0----8-5-7-----0-0-0-0-----0-0-0-0--|

F#||---------------------------------------------|
C#||---------------------------------------------|
G#||---------------------------------------------|
C#||--0-5-7-8---8-8---8-8-8----11--1111--111111--|


Interlude
F#||---------------------------------------|
C#||---------------------------------------|
G#||---------------------------------------|
C#||--8~-----------------------------------|

F#||----------------|
C#||----------------|
G#||----------------|
C#||--7-7-7-7-7-7---|


Chorus
F#||------------------------------------------------------|
C#||------------------------------------------------------|
G#||------------------------------------------------------|
C#||--0-00-000--8--8-8--8-8-8---3-33-333--10-1010-101010--|

F#||-----------------------------------------------|
C#||-----------------------------------------------|
G#||---------------------------5-55-555------------|
C#||--8-88-888-10-1010-101010------------3-33-333--|

F#||------------------------------------------------------|
C#||------------------------------------------------------|
G#||------------------------------------------------------|
C#||--0-00-000--8--8-8--8-8-8---3-33-333--10-1010-101010--|

F#||--------------------------------------------------------|
C#||--------------------------------------------------------|
G#||---------------------------5-55-555--1717171717171717---|
C#||--8-88-888-10-1010-101010-------------------------------|
                                        (17’s)

Outro
F#||-----------------------------------------------------------------------------------------------|
C#||-----------------------------------------------------------------------------------------------|
G#||------------------------------------5-\-------------------------------4------------------------|
C#||-12-\----0-0-0-----0-0-0-0----0-3/5------0-0-0-0-----0-0-0-0----8-5-7-----0-0-0-0-----0-0-0-0--|

F#||-----------------------------------------------|
C#||-----------------------------------------------|
G#||--------------------------------------------5/-|
C#||--0-5-7-8---8-8-8-8-----8-10-10-10----8-7-5----|











4       This is How
        NO BASS









5       A Better Place
Half step down (D# G# C# F#)

Verse
F#||--------------------------------------------------------------------|
C#||--------------------------------------------------------------------|
G#||--3-333333333333333333333333333-5555555555555555-77777777777777-5---| x2
D#||--------------------------------------------------------------------|

F#||-----------------------------------------------------------|
C#||-----------------------------------------------------------|
G#||--3-3333333333322222222-555555555555535-7777777777777722---| x2
D#||-----------------------------------------------------------|
        DON’T MISS THE FILLS IN THIS BIT


Pre Chorus
F#||--------------|
C#||--------------|
G#||--------2-3~--|
D#||--0-2-3-------| x2

Chorus
F#||-------------------------------------------|
C#||-------------------------------------------|
G#||-----------------2222-333333333333---5--6--|
D#||--0000-2222-3333---------------------------|

F#||----------------------------------------------|
C#||----------------------------------------------|
G#||-7777-9-9-9-9--10101010-2222-3333333333333333-|
D#||----------------------------------------------|         x2 (WHOLE THING)


Verse
F#||--------------------------------------------------------------------|
C#||--------------------------------------------------------------------|
G#||--3-333333333333333333333333333-5555555555555555-77777777777777-5---|
D#||--------------------------------------------------------------------|

F#||----------------------------------------------------------------|
C#||----------------------------------------------------------------|
G#||--3-333333333333333333333333333-5555555555555555-7--------------|
D#||----------------------------------------------------0-3-0-3-5-2-|

F#||-----------------------------------------------------------|
C#||-----------------------------------------------------------|
G#||--3-3333333333322222222-555555555555535-7777777777777722---| x2
D#||-----------------------------------------------------------|
        DON’T MISS THE FILLS IN THIS BIT


Pre Chorus
F#||--------------|
C#||--------------|
G#||--------2-3~--|
D#||--0-2-3-------|

Chorus
F#||-------------------------------------------|
C#||-------------------------------------------|
G#||-----------------2222-333333333333---5--6--|
D#||--0000-2222-3333---------------------------|

F#||----------------------------------------------|
C#||----------------------------------------------|
G#||-7777-9-9-9-9--10101010-2222-3333333333333333-|
D#||----------------------------------------------|         x2 (WHOLE THING)


Breakdown
F#||---------------------------------------|-------------------------------|
C#||---------------------------------------|-------------------------------|
G#||-222-----------------------------------|--------------------------777~-|
D#||-----000-------------------------------|--000--------------000000------|

F#||------------------------------------|----------------------------------|
C#||------------------------------------|----------------------------------|
G#||----------7/------------------------|-------------------------7--7--7--|
D#||--000-------------------------------|--000--------------00000----------|


Bridge
F#||---------------------------------------|---------------------------------------|
C#||---------------------------------------|---------------------------------------|
G#||--33333333-22222222--------------------|--33333333-22222222--------------------|
D#||--------------------32000000-33333333--|--------------------32000000-33333333--|

F#||-----------------------------------------------------------------------|
C#||-----------------------------------------------------------------------|
G#||------------------------------------2-333------------------------------|
D#||--000------------------------------------------------------------------|

F#||-----------------------------------------------------------------------|
C#||-----------------------------------------------------------------------|
G#||--------------------------------------3~---------------5~-------6~-----|
D#||--000------------------------------------------------------------------|


Chorus
F#||-------------------------------------------|
C#||-------------------------------------------|
G#||-----------------2222-333333333333---5--6--|
D#||--0000-2222-3333---------------------------|

F#||----------------------------------------------|
C#||----------------------------------------------|
G#||-7777-9-9-9-9--10101010-2222-3333333333333333-|
D#||----------------------------------------------|         x2 (WHOLE THING)


Breakdown 2
F#||---------------------------------------------------------------------|
C#||---------------------------------------------------------------------|
G#||-222----------------------------------------------------------7---7~-|
D#||-----------------000---------------------000--------------000---00---|

F#||----------------------------------------------------------------------|
C#||----------------------------------------------------------------------|
G#||----------7/-------------------------------------------------7--7--7--|
D#||--000---------------------------------000--------------00000----------|

Outro
F#||---------------------------------------------------------------------------------------|
C#||---------------------------------------------------------------------------------------|
G#||----------------------------------------------------------7\---------------------------|
D#||--111---------------111-----------------------111--------------000--------------0-0-0--|











6       Hide your Secrets
Tuning : Drop C# (C#, G#, C#, F#)


Intro (Not sure about this, corrections welcomed)
F#||---------------------------------------------------------|
C#||---------------------------------------------------------|
G#||--8-----8-----7-----7-----------0------0------10-----10--|
C#||---------------------------------------------------------|

F#||---------------------------------------------------------|
C#||---------------------------------------------------------|
G#||--8—8h10-8----7-----7-----------0—0h2---0----------------|
C#||----------------------------------------------5-------5--|

F#||---------------------------------------------------------------|
C#||---------------------------------------------------------------|
G#||--8-----8-----7-----7-----------12-----12-----10-----10-----8~~|
C#||---------------------------------------------------------------|

F#||-------------------------------------------------------------|
C#||-------------------------------------------------------------|
G#||-------------------------------------------------------------|
C#||--3----3----3----3----3----3----3----3----3----3----3----3---|


Verse
F#||-------------------------------------------|
C#||-------------------------------------------|
G#||----------------------3--33--32--22--2222--|
C#||--7777---3--33--3333-----------------------|

F#||-----------------------------------------------|
C#||-----------------------------------------------|
G#||-----------------------------------------------|
C#||--7--7-7-7-3--33--3333—5--55--55--55--55--55---|

F#||-------------------------------------------|
C#||-------------------------------------------|
G#||----------------------3--33--32--22--2222--|
C#||--7777---3--33--3333-----------------------|

F#||-----------------------------------------------|
C#||-----------------------------------------------|
G#||-----------------------------------------------|
C#||--7--7-7-7-3--33--3333—5--55--55--55--55--55---|


Chorus
F#||----------------------------------------------------------------|
C#||----------------------------------------------------------------|
G#||----------------------------------------------------------------|
C#||--3-33-33-3333-2-22-22-2222-7--7-7--7-7--7-7-7-7--5-55-55-5555--|

F#||-------------------------------------------------------|
C#||-------------------------------------------------------|
G#||-------------------------------------------------------|
C#||--3-33-33-3333-2-22-22-2222-5-55-55-5555-5-55-55-5555--|

F#||------------------------------------|
C#||------------------------------------|
G#||------------------------------------|
C#||--3--3--3----------2--2--2----------|

F#||--------------------------------------|
C#||--------------------------------------|
G#||--------------------------------------|
C#||--7--7-7--7-7--7-7-7-7--5-55-55-5555--|

F#||------------------------------------|
C#||------------------------------------|
G#||------------------------------------|
C#||--3--3--3----------2--2--2----------|

F#||---------------------------------|
C#||---------------------------------|
G#||---------------------------------|
C#||--5-55-55-5555-5--5--5--5--5--5--|


Verse
F#||-------------------------------------------|
C#||-------------------------------------------|
G#||----------------------3--33--32--22--2222--|
C#||---------3--33--3333-----------------------|

F#||-----------------------------------------------|
C#||-----------------------------------------------|
G#||-----------------------------------------------|
C#||--7--7-7-7-3--33--3333—5--55--55--55--55--55---|

F#||-------------------------------------------|
C#||-------------------------------------------|
G#||----------------------3--33--32--22--2222--|
C#||--7777---3--33--3333-----------------------|

F#||-----------------------------------------------|
C#||-----------------------------------------------|
G#||-----------------------------------------------|
C#||--7--7-7-7-3--33--3333—5--55--55--55--55--55---|


Chorus
F#||----------------------------------------------------------------|
C#||----------------------------------------------------------------|
G#||----------------------------------------------------------------|
C#||--3-33-33-3333-2-22-22-2222-7--7-7--7-7--7-7-7-7--5-55-55-5555--|

F#||-------------------------------------------------------|
C#||-------------------------------------------------------|
G#||-------------------------------------------------------|
C#||--3-33-33-3333-2-22-22-2222-5-55-55-5555-5-55-55-5555--|

F#||------------------------------------|
C#||------------------------------------|
G#||------------------------------------|
C#||--3--3--3----------2--2--2----------|

F#||--------------------------------------|
C#||--------------------------------------|
G#||--------------------------------------|
C#||--7--7-7--7-7--7-7-7-7--5-55-55-5555--|

F#||------------------------------------|
C#||------------------------------------|
G#||------------------------------------|
C#||--3--3--3----------2--2--2----------|

F#||---------------------------------|
C#||---------------------------------|
G#||---------------------------------|
C#||--5-55-55-5555-5--5--5--5--5--5--|


Bridge
F#||-----------------------------------------------------------------------|
C#||-----------------------------------------------------------------------|
G#||-----------------------------------------------------------------------|
C#||-10-10-10-10-10-10-10-10-10-10-10-10-7--7--7--7--7--7--7--7--7--7--7--7|

F#||---------------------------------------------------|
C#||---------------------------------------------------|
G#||--7-7-7-7-7-7-7-7-7-7-7-7--------------------------|
C#||--------------------------3-3-3-3-3-3-5-5-5-5-5-5--|

F#||-----------------------------------------------------------------------|
C#||-----------------------------------------------------------------------|
G#||-----------------------------------------------------------------------|
C#||-10-10-10-10-10-10-10-10-10-10-10-10-7--7--7--7--7--7--7--7--7--7--7--7|

F#||---------------------------------------------------|
C#||---------------------------------------------------|
G#||--7-7-7-7-7-7-7-7-7-7-7-7--------------------------|
C#||--------------------------3~----------5~-----------|


Interlude
F#||---------------------------------------------------------|
C#||---------------------------------------------------------|
G#||--8-----8-----7-----7-----------0------0------10-----10--| x2
C#||---------------------------------------------------------|

F#||------------------------------------------------------------|
C#||------------------------------------------------------------|
G#||-5-7-8—8h10-8----7-----7-----------0—0h2---0----------------|
C#||----------------------------------------------5-------5-----|

F#||-----------------------------------------------------|
C#||-----------------------------------------------------|
G#||--8—8-8-8-8--7-7-7-7-7--0-0-0-0-0-0-0----------------|
C#||----------------------------------------5555---5555--|


Chorus
F#||----------------------------------------------------------------|
C#||----------------------------------------------------------------|
G#||----------------------------------------------------------------|
C#||--3-33-33-3333-2-22-22-2222-7--7-7--7-7--7-7-7-7--5-55-55-5555--|

F#||-------------------------------------------------------|
C#||-------------------------------------------------------|
G#||-------------------------------------------------------|
C#||--3-33-33-3333-2-22-22-2222-5-55-55-5555-5-55-55-5555--|

F#||------------------------------------|
C#||------------------------------------|
G#||------------------------------------|
C#||--3--3--3----------2--2--2----------|

F#||--------------------------------------|
C#||--------------------------------------|
G#||--------------------------------------|
C#||--7--7-7--7-7--7-7-7-7--5-55-55-5555--|

F#||------------------------------------|
C#||-----------333333----------55555555-|
G#||------------------------------------|
C#||--3--3--3----------2--2--2----------|

F#||---------------------------------|
C#||---------------------------------|
G#||---------------------------------|
C#||--5-55-55-5555-5--5--5--5--5--5--|


F#||------------------------------------|
C#||------------------------------------|
G#||------------------------------------|
C#||--3--3--3----------2--2--2----------|

F#||--------------------------------------|
C#||--------------------------------------|
G#||--------------------------------------|
C#||--7--7-7--7-7--7-7-7-7--5-55-55-5555--|

F#||------------------------------------------------|
C#||---------3333333--------555555------------------|
G#||------------------------------------------------|
C#||--333333---------222222------------7~-5~-3~-----|










7       Arrivals
        NO BASS










8       In a Place of Solace
In a Place of Solace

Tuning: Drop C# (C# G# C# F# A# D#)



Intro (Come in at 0:43)
F#||----------------------------------------|
C#||----------------------------------------| x4
G#||----------------------------------------|
C#||--0~-----------------3~-----------------|

F#||----------------------------------------|
C#||----------------------------------------| x6
G#||----------------------------------------|
C#||--0-000-0-0~---------3-333-3-3~---------|


Verse (Come in at 2:01)
F#||--------------------------------------------------------------------|
C#||--------------------------------------------------------------------| x2
G#||--------------------------------------------------------------------|
C#||--5555555555-9--333333333333--5555555555-9--7-7-7-7-7-7-7-7-7-7-7-7-|

F#||-------------------------------------------------------------------|
C#||-------------------------------------------------------------------| x2
G#||-------------------------------------------------------------------|
C#||--0-0-0-0-0-0-0-0-0-0-0-0-0-0-0-0-0-0-0-0-0-0-0-0-0-0-0-0-0-0-0-0--|

F#||-------------------------------------------------------------------|
C#||-------------------------------------------------------------------| x4
G#||-------------------------------------------------------------------|
C#||--0-0-0-0-0-0-0-0-0-0-0-0-0-0-0-0-3-3-3-3-3-3-3-3-3-3-3-3-3-3-3-3--|


Outro
F#||-------------------------------------------------------------------|
C#||-------------------------------------------------------------------|
G#||-------------------------------------------------------------------|
C#||--0-0.0-0.0-0.XXXXXXXX0-0.0-0XXXXXXXX-0-0.0-0.0-0.XXXXXXXX0-0.0-0~-|











9       In Silent Seas we Drown
Drop C# (C# G C# F# A# D#)

Intro
F#||----------------------------------------------------------------------------|
C#||----------------------------------------------------------------------------|
G#||------------------2--------------------------------------------2------------|
C#||--3-0-2---3-0-2-------3-0-2---3-0-2--x-x-x-----3-0-2---3-0-2-------3-0-2----|


Verse
F#||------------------------------------------------------------------|
C#||------------------------------------------------------------------|
G#||------------------------------------------------------------------|
C#||--000-------------000-------------000-------------000-------------|

F#||-------------------------------------------------|
C#||-------------------------------------------------|
G#||--------------------------------------4444---44--|
C#||--3333---33---3333---33---2222---22--------------|

F#||--------------------------------------------------------|
C#||--------------------------------------------------------|
G#||--------------------------------------------------------|
C#||--00000000----000000000------000000000----00000000------|

F#||-------------------------------------------------|
C#||-------------------------------------------------|
G#||--------------------------------------4444-4-44--|
C#||--3333-3-333--3333-3-333--2222-2-22--------------|


Chorus
F#||------------------------------------------------------------------------------------------|
C#||------------------------------------------------------------------------------------------|
G#||------------------------------------------------------------------------------------------|
C#||--88--8--888--8--88888--77--7--777--7--77777--00--0--000--0--00000--33--3--333--3--33333--|

F#||------------------------------------------------------------------------------------------|
C#||------------------------------------------------------------------------------------------|
G#||------------------------------------------------------------------------------------------|
C#||--88--8--888--8--88888--77--7--777--7--77777--00--0--000--0--00000--00--0--000--0--00000--|


Riff
F#||--------------------------------------|
C#||--------------------------------------|
G#||------------------2-------------2^----|
C#||--3-0-2---3-0-2-------3-0-2-----------|


Verse
F#||------------------------------------------------------------------|
C#||------------------------------------------------------------------|
G#||------------------------------------------------------------------|
C#||--000-------------000-------------000-------------000-------------|

F#||-------------------------------------------------|
C#||-------------------------------------------------|
G#||--------------------------------------4444---44--|
C#||--3333---33---3333---33---2222---22--------------|

F#||--------------------------------------------------------|
C#||--------------------------------------------------------|
G#||--------------------------------------------------------|
C#||--00000000----000000000------000000000----00000000------|

F#||-------------------------------------------------|
C#||-------------------------------------------------|
G#||--------------------------------------4444-4-44--|
C#||--3333-3-333--3333-3-333--2222-2-22--------------|


Chorus
F#||------------------------------------------------------------------------------------------|
C#||------------------------------------------------------------------------------------------|
G#||------------------------------------------------------------------------------------------| x2
C#||--88--8--888--8--88888--77--7--777--7--77777--00--0--000--0--00000--33--3--333--3--33333--|


Bridge
F#||---------------------------------------------------------------------------------|
C#||---------------------------------------------------------------------------------|
G#||---------------------------------------------------------------------------------|
C#||--8-8-888-8-10-10-101010-10-7-7-777-12-12-12-10-10-10--8-8-888-8-10-10-101010-10-|

F#||----------------------------------------------------------|
C#||----------------------------------------------------------|
G#||----------------------------------------------------------|
C#||-0-00-0000-0-0-0-00000-00-XXXXXX--------------------------|


Breakdown
F#||-------------------------------------------------|
C#||-------------------------------------------------| x4
G#||------------------------------------55---5---55--|
C#||--0---0---0---0---0---0---0---0---0----0---0-----|


Bridge
F#||---------------------|
C#||---------------------|
G#||---------------------|
C#||--0~-----------------|

F#||---------------------|
C#||---------------------|
G#||---------------------|
C#||--0~-----------------|

F#||----------------------------------------------------------------------------|
C#||----------------------------------------------------------------------------|
G#||------------------2--------------------------------------------2------------|
C#||--3-0-2---3-0-2-------3-0-2---3-0-2--x-x-x-----3-0-2---3-0-2-------3-0-2----|

F#||------------------------------------------------------------------|
C#||------------------------------------------------------------------|
G#||------------------------------------------------------------------|
C#||--3-0-2---------------3-0-2--x-x-x-----3-0-2-------------3-0-2----|


Chorus
F#||------------------------------------------------------------------------------------------|
C#||------------------------------------------------------------------------------------------|
G#||------------------------------------------------------------------------------------------| x2
C#||--88--8--888--8--88888--77--7--777--7--77777--00--0--000--0--00000--33--3--333--3--33333--|


Bridge
F#||---------------------------------------------------------------------------|
C#||---------------------------------------------------------------------------|
G#||---------------------------------------------------------------------------|
C#||--8-8-888-8-10-10-101010-10-7-7-777-12-12-12-10-10-10--8-8-888-8-7-7-777-7-|


Outro
F#||-------------------------------------------------|
C#||-------------------------------------------------| x2
G#||------------------------------------55---5---55--|
C#||--0---0---0---0---0---0---0---0---0----0---0-----|

Let open C# ring at the end










10      California
Half-Step Down (D# G# C# F#)


Intro

JUST GUITAR


Pre-Verse (0:17)
F#||--------------------------------------------------|
C#||--------------------------------------------------| x2
G#||-------------------------3--33--333--2--22--2222--|
D#||--00--0--000--0--0--XXX---------------------------|

F#||---------------------------------------|
C#||---------------------------------------|
G#||--------------------------33333333--5--|
D#||--55--5--555--5--55555-----------------|


Verse
F#||-------------------------------|--------------------------------|
C#||-------------------------------|--------------------------------|
G#||------------------------3-3-3--|--------------------------------|
D#||--0----------0-----------------|--0----------0-----------0-0-0--|

F#||------------------------------------------------|
C#||------------------------------------------------|
G#||--3--33--333-2--22--222-5--55--555-5--555--555--|
D#||------------------------------------------------|

F#||-------------------------------|--------------------------------|
C#||-------------------------------|--------------------------------|
G#||------------------------3-3-3--|--------------------------------|
D#||--0----------0-----------------|--0----------0-----------0-0-0--|

F#||------------------------------------------------|
C#||------------------------------------------------|
G#||--3--33--333-2--22--222-5--55--555-5--555--555--|
D#||------------------------------------------------|

F#||--------------------------------------------|
C#||--------------------------------------------|
G#||--------------------------------------------|
D#||--0--00--0000--00--0000--33--3333--33--333--|


Chorus                                          Don’t miss the fill
F#||--------------------------------------------------------------------------|
C#||-------------------------------------------------------------------5h7p5--|
G#||--7-77-777-777-777-3-33-333-333-333-5-55-555-555-555-3-33-333-0h5h7-------|
D#||--------------------------------------------------------------------------|

F#||-----------------------------------------------------------------|
C#||-----------------------------------------------------------------|
G#||--7-77-777-777-777-3-33-333-333-333-5-55-555-555-555-33333333-5--|
D#||-----------------------------------------------------------------|


Pre-Verse
F#||--------------------------------------------------|
C#||--------------------------------------------------|
G#||-------------------------3--33--333--2--22--2222--|
D#||--00--0--000--0--0--XXX---------------------------|

F#||---------------------------------------|
C#||---------------------------------------|
G#||--------------------------33333333--5--|
D#||--00--0--000--0--00000-----------------|


Verse
F#||-------------------------------|--------------------------------|
C#||-------------------------------|--------------------------------|
G#||------------------------3-3-3--|--------------------------------|
D#||--0----------0-----------------|--0----------0-----------0-0-0--|

F#||------------------------------------------------|
C#||------------------------------------------------|
G#||--3--33--333-2--22--222-5--55--555-5--555--555--|
D#||------------------------------------------------|

F#||-------------------------------|--------------------------------|
C#||-------------------------------|--------------------------------|
G#||------------------------3-3-3--|--------------------------------|
D#||--0----------0-----------------|--0----------0-----------0-0-0--|

F#||------------------------------------------------|
C#||------------------------------------------------|
G#||--3--33--333-2--22--222-5--55--555-5--555--555--|
D#||------------------------------------------------|

F#||--------------------------------------------|
C#||--------------------------------------------|
G#||--------------------------------------------|
D#||--0--00--0000--00--0000--33--3333--33--333--|


Chorus                                          Don’t miss the fill
F#||--------------------------------------------------------------------------|
C#||-------------------------------------------------------------------5h7p5--|
G#||--7-77-777-777-777-3-33-333-333-333-5-55-555-555-555-3-33-333-0h5h7-------|
D#||--------------------------------------------------------------------------|


F#||------------------------------------------------------------------------|
C#||------------------------------------------------------------------------|
G#||--7-77-777-777-777-3-33-333-333-333-5-55-555-555-555-33333333-55555555--|
D#||------------------------------------------------------------------------|

F#||-------|
C#||-------|
G#||-------|
D#||--0-~--|


Interlude (2:22)
F#||------------------------------------------------------------------------------|
C#||------------------------------------------------------------------------------| x2
G#||-----------------------5-5-5-5-----------------3-3-3-3---------------5-5-5-5--|
D#||--0-0-0-0---------------------------------------------------------------------|

F#||-------------|
C#||--2----------|
G#||----------0--|
D#||------2------|


Bridge
F#||-------------------------------------------------------------------|
C#||-------------------------------------------------------------------| x2
G#||--------------------------------------------------3-3-3-3-5-5-5-5--|
D#||--0-0-0-0-0-0-0-0-3-3-3-3-3-3-3-3-5-5-5-5-5-5-5-5------------------|


Chorus / Outro
F#||-------------------------------------------------------------------|
C#||-------------------------------------------------------------------|
G#||-------------------------------------------------------------------|
D#||--0-0-0-0-0-0-0-0-0-0-0-0-0-0-0-0-3-3-3-3-3-3-3-3-3-3-3-3-3-3-3-3--|

F#||-------------------------------------------------------------------|
C#||-------------------------------------------------------------------| WHOLE THING x2
G#||--5-5-5-5-5-5-5-5-5-5-5-5-5-5-5-5-3-3-3-3-3-3-3-3-5-5-5-5-5-5-5-5--|
D#||-------------------------------------------------------------------|

F#||-------|
C#||-------|
G#||-------|
D#||--0-~--|











11      The Wind Shifts
Half Step Down (D# G# C# F#)


F#||-------------------------------------------------------------------|
C#||-------------------------------------------------------------------| x2
G#||--2~--------------------------------5~-----------------------------|
D#||-------------------3~--------------------------------5~--------6~--|

F#||-------------------------------------------------------------------|
C#||-------------------------------------------------------------------| x3
G#||------------------------------------2~---------------5~------------|
D#||--3~---------------5~----------------------------------------------|

F#||------------------------------------------------|
C#||------------------------------------------------|
G#||------------------------------------2~~~~-------|
D#||--3~---------------5~---------------------------|










12      To Live and To Lose
Half-Step Down (D# G# C# F# A# D#)

(0:37)

F#||--------|
C#||--------|
G#||--4~~~--| X2 (LISTEN FOR TIMING AS THESE PARTS ARE VERY SPACED OUT)
D#||--------|

F#||--------|
C#||--------|
G#||--------|
D#||--0~~~--|


Verse
F#||--------------------------|
C#||--------------------------| x2
G#||--0--0--0--0--0--0--0--0--|
D#||--------------------------|

F#||---------|--------------------------|
C#||---------|--------------------------|
G#||--4~\\\--|--0--0--0--0--0--0--0--0--|
D#||---------|--------------------------|

F#||---------|--------------------------|
C#||---------|--------------------------|
G#||---4~-7~-|--0--0--0--0--0--0--0--0--|
D#||---------|--------------------------|


Chorus
F#||--------------------------------------------------------------------|
C#||--------------------------------------------------------------------|
G#||--4-4-4-4-4-4-4-4-3-3-3-3-3-3-3-3-----------------0-0-0-0-0-0-0-0---|
D#||----------------------------------0-0-0-0-0-0-0-0-------------------|

F#||--------------------------------------------------------------------|
C#||--------------------------------------------------------------------|
G#||--4-4-4-4-4-4-4-4-3-3-3-3-3-3-3-3-0-0-0-0-0-0-0-0-------------------|
D#||--------------------------------------------------0-0-0-0-0-0-0-0---|

Bridge
F#||-------------------------------------------------------------|
C#||-------------------------------------------------------------|
G#||--0--0--0-----------------------0--0--2--4~---4-4---4---4-4--|
D#||-----------0~---0-0---0---0-0--------------------------------|

F#||-------------------------------------------------------------|
C#||-------------------------------------------------------------|
G#||--0--0--0-----------------------2~--2-2--2~---2-2-2-2-2-2-2--|
D#||-----------0~---0-0---0---0-0--------------------------------|

F#||-------------------------------------------------------------|
C#||-------------------------------------------------------------|
G#||--0--0--0-----------------------0--0--2--4~---4-4---4---4-4--|
D#||-----------0~---0-0---0---0-0--------------------------------|

F#||--------------------------------------------------|
C#||--------------------------------------------------|
G#||--0--0--0-----------------------2222222222222222--|
D#||-----------0~---0-0---0---0-0---------------------|


Interlude (2:25)
F#||-----------------------------------------------|
C#||-----------------------------------------------|
G#||--4-----4-----4-----4-----3-----3-----3-----3--|
D#||-----------------------------------------------|

F#||-------------------------------------------------|
C#||-------------------------------------------------|
G#||--0-----0-----0-----0----------------------------|
D#||--------------------------0--0--0--0--0--000000--|


Chorus
F#||--------------------------------------------------------------------|
C#||--------------------------------------------------------------------|
G#||--4-4-4-4-4-4-4-4-3-3-3-3-3-3-3-3-----------------0-0-0-0-0-0-0-0---|
D#||----------------------------------0-0-0-0-0-0-0-0-------------------|

F#||--------------------------------------------------------------------|
C#||--------------------------------------------------------------------| X4 WHOLE THING
G#||--4-4-4-4-4-4-4-4-3-3-3-3-3-3-3-3-0-0-0-0-0-0-0-0-------------------|
D#||--------------------------------------------------0-0-0-0-0-0-0-0---|

Can’t work out the bass riff in the last 2 plays of the chorus. Would appreciate it if 
somebody emailed it to me at tomheavens@msn.com. I will quite happily give them credit 
for it








13      With Second Chances
These next two songs have a really awesomely low tuning!
Drop A# (A# F A# D#)


Intro/Verse
D#||-----------------------------------|
A#||-----------------------------------|
F ||-----------------------------------|
A#||--5~------------7~------------8-~--|

D#||---------------------------------------------------------|
A#||---------------------------------------------------------|
F ||---------------------------------------------------------|
A#||--12-1212--1212--1212---1212-10-1010--1010--1010---1010--|

D#||---------------------------------------------------------|
A#||---------------------------------------------------------|
F ||---------------------------------------------------------|
A#||--8--8-8---8-8---8-8----8-8--8--8-8---8-8---8-8----8-8---|

D#||--------------------------------------------------------|
A#||--------------------------------------------------------|
F ||--------------------------------------------------------|
A#||--5~------------7~------------8--8-8---8-8---8-8---8-8--|

D#||---------------------------------------------------------|
A#||---------------------------------------------------------|
F ||---------------------------------------------------------|
A#||--12-1212--1212--1212---1212-10-1010--1010--1010---1010--|

D#||---------------------------------------------------------|
A#||---------------------------------------------------------|
F ||---------------------------------------------------------|
A#||--8--8-8---8-8---8-8----8-8--8--8-8---8-8---8-8----8-8---|


Pre-Chorus
D#||--------------------------------------------------------------|
A#||--------------------------------------------------------------| x2
F ||--------------------------------------------------------------|
A#||-----5--5-----3--3-------------------5--5-----3--3--------7~--|

Wait for it…

Chorus
D#||---------------------------------------------------------------------------|
A#||---------------------------------------------------------------------------| x2
F ||--6-6-6-6-6-6-6-6-8-8-8-8-8-8-8-8-10-10-10-10-10-10-10-10-5-5-5-5-5-5-5-5--|
A#||---------------------------------------------------------------------------|


Verse
D#||--------------------------------------------------------|
A#||--------------------------------------------------------|
F ||--------------------------------------------------------|
A#||--5~------------7~------------8--8-8---8-8---8-8---8-8--|

D#||---------------------------------------------------------|
A#||---------------------------------------------------------|
F ||---------------------------------------------------------|
A#||--12-1212--1212--1212---1212-10-1010--1010--1010---1010--|

D#||---------------------------------------------------------|
A#||---------------------------------------------------------|
F ||---------------------------------------------------------|
A#||--8--8-8---8-8---8-8----8-8--8--8-8---8-8---8-8----8-8---|


D#||-------------------------------------------------------|
A#||-------------------------------------------------------|
F ||-------------------------------------------------------|
A#||--5--5--5-5--5--5-7--7--7-7--7--7-8--8--8-8--8--8-8-~--|



D#||---------------------------------------------------------|
A#||---------------------------------------------------------|
F ||---------------------------------------------------------|
A#||--12-1212--1212--1212---1212-10-1010--1010--1010---1010--|

D#||---------------------------------------------------------|
A#||---------------------------------------------------------|
F ||---------------------------------------------------------|
A#||--8--8-8---8-8---8-8----8-8--8--8-8---8-8---8-8----8-8---|


Pre-Chorus
D#||--------------------------------------------------------------|
A#||--------------------------------------------------------------| x2
F ||--------------------------------------------------------------|
A#||-----5--5-----3--3-------------------5--5-----3--3--------7~--|

Chorus
D#||---------------------------------------------------------------------------|
A#||---------------------------------------------------------------------------| x2
F ||--6-6-6-6-6-6-6-6-8-8-8-8-8-8-8-8-10-10-10-10-10-10-10-10-5-5-5-5-5-5-5-5--|
A#||---------------------------------------------------------------------------|

D#||-------------------------------------------------------------------|
A#||-------------------------------------------------------------------| x2
F ||-------------------------------------------------------------------|
A#||--1-1-1-1-1-1-1-1-3-3-3-3-3-3-3-3-5-5-5-5-5-5-5-5-0-0-0-0-0-0-0-0--|

Breakdown
D#||----------------------------------------------|----------------------------------------------|
A#||----------------------------------------------|----------------------------------------------|
F ||----------------------------------------------|----------------------------------------------|
A#||--0-----0--0000-----0--------0---0---0----1~--|--0-----0--0000-----0--------0---0---0----1~--|

Bridge
D#||-------------------------------------------|
A#||-------------------------------------------|
F ||-------------------------------------------| x2
A#||--0~-------3~----------------8~--------5~--|

D#||-------------------------------------------------------------------|
A#||-------------------------------------------------------------------| x2
F ||-------------------------------------------------------------------|
A#||--0-0-0-0-0-0-0-3-3-3-3-3-3-3-3-3-8-8-8-8-8-8-8-5-5-5-5-5-5-5-5-5--|


Chorus
D#||---------------------------------------------------------------------------|
A#||---------------------------------------------------------------------------| x2
F ||--6-6-6-6-6-6-6-6-8-8-8-8-8-8-8-8-10-10-10-10-10-10-10-10-5-5-5-5-5-5-5-5--|
A#||---------------------------------------------------------------------------|

D#||-------------------------------------------------------------------|
A#||-------------------------------------------------------------------| x2
F ||-------------------------------------------------------------------|
A#||--1-1-1-1-1-1-1-1-3-3-3-3-3-3-3-3-5-5-5-5-5-5-5-5-0-0-0-0-0-0-0-0--|

Wait for it…

Outro
D#||----------------------------------------------|-----------------------------------------|
A#||----------------------------------------------|-----------------------------------------|
F ||----------------------------------------------|-----------------------------------------|
A#||--0-----0--0000-----0--------0---0---0----1~--|--0-----0--0000-----0--------0---0---0---|

D#||----------------------------------------------|-----------------------------------------|
A#||----------------------------------------------|-----------------------------------------|
F ||----------------------------------------------|-----------------------------------------|
A#||--0-----0--0000-----0--------0---0---0----1~--|--0-----0--0000-----0--------0---0---0---|










14      Departures
Drop A# (A# F A# D# G C)


D#||-------|
A#||-------|   (play around with this note for a bit)
F ||-------|
A#||--3~---|

D#||------------------------------------------------|
A#||------------------------------------------------| x3
F ||--3~------------1~------------------------------|
A#||------------------------------3~------------0~--|

D#||--------------------|
A#||--------------------|
F ||--3~------------1~--|
A#||--------------------|

D#||-----------------------------------------------|
A#||-----------------------------------------------| x2
F ||--4~------------3~-------------------1~--------|
A#||------------------------------3~-----------0~--|


Chorus
D#||-----------------------------------------------------------------------|
A#||-----------------------------------------------------------------------|
F ||------------------3~--------------8-~-----------------1~---------------|
A#||--0~-------------------------------------------------------------------|

D#||-------------------------------------------------------------------|
A#||-------------------------------------------------------------------| x3 Whole thing
F ||------------------3~--------------1~--------------1~---------------|
A#||--0~---------------------------------------------------------------|

D#||------------------------------------------------------------------------------------|
A#||------------------------------------------------------------------------------------|
F ||------------------------------------------------------------------------------------|
A#||--5~-------------------5~-------------------3~------------------3~------------------|

D#||---------------------------|
A#||---------------------------|
F ||--1~-------------------1~--|
A#||---------------------------|

D#||-----------|
A#||-----------|
F ||--4~---h5~-|
A#||-----------|
comments
We did not receive enough feedback on this tab! Please rate:
print report bad tab
1 2 3 4 5
1 comment total.
0 reply
B.C.RichRulz wrote on May 18 2013, 05:48 pm

thank you for this :)

I want to post or [tab]
guest
You may want to rate the tab now too:
select rating
Please do not post tabs as comments. Select "correction" instead!