Oops, an error
Loading. Please wait.

This Is How The Wind Shifts Tab

3,375 views 6 this week
4 commentsread comments
1 2 3 4 5
excellent!
x 6
Autoscroll
+/-
esc
set tempo
stop
Contributor
Difficulty
intermediate
Hey! There's an official Ultimate Guitar app which is ideal
for learning songs when you're away from computer. Get the app
WARNING: You are trying to view
                                    content from Ultimate-Guitar.com
                                    in an unauthorized application,
                                    which is prohibited.

                                    Please use an official Ultimate
                                    Guitar Tabs application for iPhone,
                                    iPad or Android to access legitimate
                                    chords, guitar, bass, and drum tabs
                                    from Ultimate-Guitar.com database.

                                    Type "ultimate guitar tabs" in Apple
                                    App Store's or Android Market's
                                    search to find the application.
Tabbed by: Joshua Garcia (joshuag523@aol.com)

Tabs for the album: This Is How The Wind Shifts by Silverstein
Please rate and let me know if you have any corrections. Thank you.


*To skip to a certain song, hold Ctrl + F, type T followed by the track number, and click Next. *


Tracklist:

T01.  Stand Amid The Roar
T02.  On Brave Mountains We Conquer
T03.  Massachusetts
T04.  This Is How
T05.  A Better Place
T06.  Hide Your Secrets
T07.  Arrivals
T08.  In A Place Of Solace
T09.  In Silent Seas We Drown
T10.  California
T11.  The Wind Shifts
T12.  To Live And To Lose
T13.  With Second Chances
T14.  Departures




____________________________________________________________________________________________________

                                   T01.   STAND AMID THE ROAR
____________________________________________________________________________________________________





Tuning: Drop C# (C# G# C# F# A# D#)



Intro
Guitar 1:
D#||-------------------------------------------------------------------|
A#||-------------------------------------------------------------------|
F#||-------------------------------------------------------------------|
C#||---------------------------------------------------------------xx--|
G#||---------------------------------------------------------------xx--|
C#||--555555555555555555555555555555555555555555555555555555555555-xx--|



Verse
Guitar 1:
D#||------------------------|-------------------------|
A#||------------------------|-------------------------|
F#||------------------------|-------------------------|
C#||--8--88--888--88888/10--|--7--77--777-------------| x2
G#||--5--55--555------------|--3--33--333--66666-5----|
C#||--5--55--555------------|--3--33--333----------8--|


Guitar 2:
D#||------------------------|-------------------------|
A#||------------------------|-------------------------|
F#||--------------77777h8---|-------------------------|
C#||--8--88--888------------|--7--77--777--55555-3----|
G#||--5--55--555------------|--3--33--333----------5--|
C#||--5--55--555------------|--3--33--333-------------|



Guitar 1:
D#||-------------------------------------------------------|
A#||--1111111111111111----------66666666-1010101010101010--|
F#||-------------------77777777----------------------------|
C#||-------------------------------------------------------| x2
G#||-------------------------------------------------------|
C#||-------------------------------------------------------|
     (^ 11's)


Guitar 2:
D#||------------------------|-----------------------|
A#||------------------------|-----------------------|
F#||------------------------|-----------------------|
C#||--8--88--888--88888/10--|--7--77--777-777-------| x2
G#||--5--55--555------------|--3--33--333-333-------|
C#||--5--55--555------------|--3--33--333-333--333--|


Guitar 3:
D#||------------------------|------------------------|
A#||------------------------|------------------------|
F#||--------------77777h8---|------------------------|
C#||--8--88--888------------|--7--77--777--777-------| x2
G#||--5--55--555------------|--3--33--333--333-------|
C#||--5--55--555------------|--3--33--333--333--333--|



Pre-Chorus
Guitar 1:
D#||---------------------------------------------|
A#||--8--8--8-10--10--10-11--11--11-13~--b15r13--|
F#||---------------------------------------------|
C#||---------------------------------------------|
G#||---------------------------------------------|
C#||---------------------------------------------|


Guitar 2:
D#||---------------------------------------------|
A#||---------------------------------------------|
F#||---------------------------------------------|
C#||--1~--1~---1~---1~---1~----------------------|
G#||--1~--1~---1~---1~---1~----6--6--6-5~--b4r5--|
C#||--1~--1~---1~---1~---1~----------------------|



Chorus
Guitar 1/2:
D#||-----------------------------------------------|
A#||--------3------------3-----------3-------------|
F#||--------3------------3-----------3-------------|
C#||--5--4-------5--4-5------5-4--5-----1---0---4--| x4
G#||--5--4-------5--4-5------5-4--5-----1---0---4--|
C#||--5--4-------5--4-5------5-4--5-----1---0---4--|



Pre-Verse
Guitar 1:
D#||-----------------------------------|
A#||-----------------------------------|
F#||-----------------------------------|
C#||-------------------------------xx--|
G#||-------------------------------xx--|
C#||--5555555555555555555555555555-xx--|


Guitar 2:
D#||-----------------------------------|
A#||-----------------------------------|
F#||-----------------------------------|
C#||-------------------------------xx--|
G#||-------------------------------xx--|
C#||--5~---------------------------xx--|



Verse
Guitar 1:
D#||------------------------|-------------------------|
A#||------------------------|-------------------------|
F#||------------------------|-------------------------|
C#||--8--88--888--88888/10--|--7--77--777-------------| x2
G#||--5--55--555------------|--3--33--333--66666-5----|
C#||--5--55--555------------|--3--33--333----------8--|


Guitar 2:
D#||------------------------|-------------------------|
A#||------------------------|-------------------------|
F#||--------------77777h8---|-------------------------|
C#||--8--88--888------------|--7--77--777--55555-3----|
G#||--5--55--555------------|--3--33--333----------5--|
C#||--5--55--555------------|--3--33--333-------------|



Guitar 1:
D#||-------------------------------------------------------|
A#||--1111111111111111----------66666666-1010101010101010--|
F#||-------------------77777777----------------------------|
C#||-------------------------------------------------------| x2
G#||-------------------------------------------------------|
C#||-------------------------------------------------------|


Guitar 2:
D#||------------------------|-----------------------|
A#||------------------------|-----------------------|
F#||------------------------|-----------------------|
C#||--8--88--888--88888/10--|--7--77--777-777-------| x2
G#||--5--55--555------------|--3--33--333-333-------|
C#||--5--55--555------------|--3--33--333-333--333--|


Guitar 3:
D#||------------------------|------------------------|
A#||------------------------|------------------------|
F#||--------------77777h8---|------------------------|
C#||--8--88--888------------|--7--77--777--777-------| x2
G#||--5--55--555------------|--3--33--333--333-------|
C#||--5--55--555------------|--3--33--333--333--333--|



Pre-Chorus
Guitar 1:
D#||----------------------------------|
A#||--8--8--8-8--8--8-7--7--7-7~--7\--|
F#||----------------------------------|
C#||----------------------------------|
G#||----------------------------------|
C#||----------------------------------|


Guitar 2:
D#||-------------------------------------------|
A#||-------------------------------------------|
F#||-------------------------------------------|
C#||--1~--1~---1~---1~---1~--------------------|
G#||--1~--1~---1~---1~---1~----6--6--6-5~--5\--|
C#||--1~--1~---1~---1~---1~--------------------|



Chorus
Guitar 1/2:
D#||-----------------------------------------------|
A#||--------3------------3-----------3-------------|
F#||--------3------------3-----------3-------------|
C#||--5--4-------5--4-5------5-4--5-----1---0---4--| x4
G#||--5--4-------5--4-5------5-4--5-----1---0---4--|
C#||--5--4-------5--4-5------5-4--5-----1---0---4--|


D#||-------------|
A#||-------------|
F#||-------------|
C#||--1---0---4--|
G#||--1---0---4--|
C#||--1---0---4--|



Interlude
Guitar 1:
D#||-----18------------------------------------------|
A#||--------15---------8~---10--11--6~--8~-----------|
F#||--15-------15~-----10~----------8~---------8--7--|
C#||-------------------------------------------------| x2
G#||-------------------------------------------------|
C#||-------------------------------------------------|


Guitar 2:
D#||-------------------------------------------------|
A#||-------------------3~-----------4~---------------|
F#||-------------------3~-----------5~---------------|
C#||--5~---------------3~-----------5~---------------| x2
G#||--5~---------------1~-----------3~---------------|
C#||--5~---------------------------------------------|




Guitar 1:
D#||-----18-------------------------------------------------------------------------------------|
A#||--------15------15-15-15---8--8--8--10-10-10-11-11---6-6-6-8-8-8-10-10-10-------------------|
F#||--15-------15---15-15-15---10-10-10-10-10-10-10-10---8-8-8-8-8-8-8--8--8---8-8-8-7-7-7-7-/--|
C#||--------------------------------------------------------------------------------------------|
G#||--------------------------------------------------------------------------------------------|
C#||--------------------------------------------------------------------------------------------|


Guitar 2:
D#||-------------------------------------------------------------------|
A#||-------------------------------------------------------------------|
F#||------------------3-3-3-3-3-3-3-3-5-5-5-5-5-5-5-5-8-8-8-8-8-8-8-8--|
C#||--5-5-5-5-5-5-5-5-3-3-3-3-3-3-3-3-5-5-5-5-5-5-5-5-8-8-8-8-8-8-8-8--|
G#||--5-5-5-5-5-5-5-5-1-1-1-1-1-1-1-1-3-3-3-3-3-3-3-3-6-6-6-6-6-6-6-6--|
C#||--5-5-5-5-5-5-5-5--------------------------------------------------|
      . . . . . . . . . . . . . . . . . . . . . . . . . . . .


Guitar 1:
D#||-----18-------------------------------------------------------------------------------|
A#||--------15------15-15-15---8--8--8--10-10-10-11-11---6-6-6-8-8-8-10-10-10-------------|
F#||--15-------15---15-15-15---10-10-10-10-10-10-10-10---8-8-8-8-8-8-8--8--8---8-8-8-7-7--|
C#||--------------------------------------------------------------------------------------|
G#||--------------------------------------------------------------------------------------|
C#||--------------------------------------------------------------------------------------|


Guitar 2:
D#||---------------------------------------------------------------|
A#||---------------------------------------------------------------|
F#||------------------3-3-3-3-3-3-3-3-5-5-5-5-5-5-5-5-8-8-8-8-8-8--|
C#||--5-5-5-5-5-5-5-5-3-3-3-3-3-3-3-3-5-5-5-5-5-5-5-5-8-8-8-8-8-8--|
G#||--5-5-5-5-5-5-5-5-1-1-1-1-1-1-1-1-3-3-3-3-3-3-3-3-6-6-6-6-6-6--|
C#||--5-5-5-5-5-5-5-5----------------------------------------------|
      . . . . . . . . . . . . . . . . . .



Bridge
Guitar 1:
D#||-----18-------------------------------------------------------------------------------------|
A#||--------15------15-15-15---8--8--8--10-10-10-11-11---6-6-6-8-8-8-10-10-10-------------------|
F#||--15-------15---15-15-15---10-10-10-10-10-10-10-10---8-8-8-8-8-8-8--8--8---8-8-8-7-7-7-7-/--|
C#||--------------------------------------------------------------------------------------------| x4
G#||--------------------------------------------------------------------------------------------|
C#||--------------------------------------------------------------------------------------------|


D#||---------------------------------------------------------------------|
A#||---------------------------------------------------------------------|
F#||--15-15-15-15-15-15-15-15-14-14-14-14-14-14-14-14-12~-------(b~~15)--|
C#||---------------------------------------------------------------------|
G#||---------------------------------------------------------------------|
C#||---------------------------------------------------------------------|


Guitar 2:
D#||-------------------------------------------------------------------|
A#||-------------------------------------------------------------------|
F#||------------------3-3-3-3-3-3-3-3-5-5-5-5-5-5-5-5------------------|
C#||--5-5-5-5-5-5-5-5-3-3-3-3-3-3-3-3-5-5-5-5-5-5-5-5-1-1-1-1-1-1-1-1--| x4
G#||--5-5-5-5-5-5-5-5-1-1-1-1-1-1-1-1-3-3-3-3-3-3-3-3-1-1-1-1-1-1-1-1--|
C#||--5-5-5-5-5-5-5-5---------------------------------1-1-1-1-1-1-1-1--|


D#||-----------------------------------|
A#||-----------------------------------|
F#||-----------------------------------|
C#||--0-0-0-0-0-0-0-0-0-0-0-0-0-0-0-0--|
G#||--0-0-0-0-0-0-0-0-0-0-0-0-0-0-0-0--|
C#||--0-0-0-0-0-0-0-0-0-0-0-0-0-0-0-0--|



Chorus
Guitar 1/2:
D#||-----------------------------------------------|
A#||--------3------------3-----------3-------------|
F#||--------3------------3-----------3-------------|
C#||--5--4-------5--4-5------5-4--5-----1---0---4--| x4
G#||--5--4-------5--4-5------5-4--5-----1---0---4--|
C#||--5--4-------5--4-5------5-4--5-----1---0---4--|


Outro
Guitar 1/2:
D#||-----------------------------------------------|
A#||--------3------------3-----------3-------------|
F#||--------3------------3-----------3-------------|
C#||--5x-4----xx-5--4-5------5-4--5-----1---0---4--| x2
G#||--5x-4----xx-5--4-5------5-4--5-----1---0---4--|
C#||--5x-4----xx-5--4-5------5-4--5-----1---0---4--|





____________________________________________________________________________________________________

                              T02.   ON BRAVE MOUNTAINS WE CONQUER
____________________________________________________________________________________________________





Tuning: Drop C# (C# G# C# F# A# D#)



Intro / Verse
Guitar 1:
D#||-------------------------------------------|
A#||-------------------------------------------|
F#||----7777777777777------777------777--------|
C#||--0-xxxxxxxxxxxxx-0-0--xxx-0-0--xxx-0--00--|
G#||--0-5555555555555-0-0--555-0-0--555-0--00--|
C#||--0---------------0-0------0-0------0--00--|


D#||-----------------------------------------------------------|
A#||-----------------------------------------------------------|
F#||--10101010101010101010101010------101010------101010-------|
C#||--x-x-x-x-x-x-x-x-x-x-x-x-x--0-0--x-x-x--0-0--x-x-x--0--0--|
G#||--8-8-8-8-8-8-8-8-8-8-8-8-8--0-0--8-8-8--0-0--8-8-8--0--0--|
C#||-----------------------------0-0---------0-0---------0--0--|


Guitar 2:
D#||-------------------------------------------|----------------------------------------|
A#||-------------------------------------------|----------------------------------------|
F#||----7777777777777------777------777--------|--7777777777777------777------777-------|
C#||--0-xxxxxxxxxxxxx-0-0--xxx-0-0--xxx-0--00--|--xxxxxxxxxxxxx-0-0--xxx-0-0--xxx-0--0--|
G#||--0-5555555555555-0-0--555-0-0--555-0--00--|--5555555555555-0-0--555-0-0--555-0--0--|
C#||--0---------------0-0------0-0------0--00--|----------------0-0------0-0------0--0--|



Guitar 1:
D#||----------------------------------------------------------------------|
A#||----------------------------------------------------------------------|
F#||-------10-9-----------------------------------------------------------|
C#||--8~--------10-12-10-8------------------------------------------------|
G#||-----------------------10/12--12--12121212/13---10--10101010/12~--\---|
C#||----------------------------------------------------------------------|


Guitar 2:
D#||----------------------------------------------------------------------|
A#||----------------------------------------------------------------------|
F#||----------------------------------------------------------------------|
C#||--8~-----------------------5~--------------------1~-------------------|
G#||--8~-----------------------5~--------------------1~-------------------|
C#||--8~-----------------------5~--------------------1~-------------------|


Guitar 1/2:
D#||---------------------------------------------|
A#||---------------------------------------------|
F#||----7777777777777------777-------------------|
C#||--0-xxxxxxxxxxxxx-0-0--xxx-0-0--x-x-x-x-x-x--|
G#||--0-5555555555555-0-0--555-0-0--x-x-x-x-x-x--|
C#||--0---------------0-0------0-0--x-x-x-x-x-x--|



Verse
Guitar 1:
D#||-------------------------------------------|
A#||-------------------------------------------|
F#||----7777777777777------777------777--------|
C#||--0-xxxxxxxxxxxxx-0-0--xxx-0-0--xxx-0--00--|
G#||--0-5555555555555-0-0--555-0-0--555-0--00--|
C#||--0---------------0-0------0-0------0--00--|


D#||-----------------------------------------------------------|
A#||-----------------------------------------------------------|
F#||--10101010101010101010101010------101010------101010-------|
C#||--x-x-x-x-x-x-x-x-x-x-x-x-x--0-0--x-x-x--0-0--x-x-x--0--0--|
G#||--8-8-8-8-8-8-8-8-8-8-8-8-8--0-0--8-8-8--0-0--8-8-8--0--0--|
C#||-----------------------------0-0---------0-0---------0--0--|


Guitar 2:
D#||-------------------------------------------|----------------------------------------|
A#||-------------------------------------------|----------------------------------------|
F#||----7777777777777------777------777--------|--7777777777777------777------777-------|
C#||--0-xxxxxxxxxxxxx-0-0--xxx-0-0--xxx-0--00--|--xxxxxxxxxxxxx-0-0--xxx-0-0--xxx-0--0--|
G#||--0-5555555555555-0-0--555-0-0--555-0--00--|--5555555555555-0-0--555-0-0--555-0--0--|
C#||--0---------------0-0------0-0------0--00--|----------------0-0------0-0------0--0--|



Guitar 1:
D#||-----------------------------------------------------------------|
A#||-----------------------------------------------------------------|
F#||-------10-9------------------------------------------------------|
C#||--8~--------10-12-8--------------------------12--12121212121212--|
G#||--------------------10/12--12--12121212/13-----------------------|
C#||-----------------------------------------------------------------|


Guitar 2:
D#||-----------------------------------------------------------------|
A#||-----------------------------------------------------------------|
F#||-----------------------------------------------------------------|
C#||--8~-----------------------5~----------------1~------------------|
G#||--8~-----------------------5~----------------1~------------------|
C#||--8~-----------------------5~----------------1~------------------|


Guitar 1/2:
D#||-----------------------------------------|-------------|
A#||-----------------------------------------|-------------|
F#||----7777777777777------777---------------|-------------|
C#||--0-xxxxxxxxxxxxx-0-0--xxx-0-0--3--5--7--|--8~-----7~--|
G#||--0-5555555555555-0-0--555-0-0--3--5--7--|--8~-----8~--|
C#||--0---------------0-0------0-0--3--5--7--|--8~-----7~--|



Chorus
Guitar 1:
D#||--------------------------------------|-------------------------------------------------------|
A#||--------------------------------------|-------------------------------------------------------|
F#||---------------9------10--1010--1010--|--10--10--9\-----10-9----------------------------------|
C#||--7---------------10--10--1010--1010--|----------------------10h12p10-------1010101010101010--|
G#||-----8--7\----------------------------|------------------------------10\12--1212121212121212--|
C#||--------------------------------------|-------------------------------------------------------|


D#||-------------------------------------|------------------------------------------|
A#||----------------------5---6--66--66--|------------------------------------------|
F#||--14\-10-9----5-5-5-----5------------|--10101010---10-9~----7\5/10--1010--1010--|
C#||--x-\-x--x----x-x-x------------------|--x-x-x-x----x--x-------------------------|
G#||--12\-8--7----3-3-3------------------|--8-8-8-8----8--7~------------------------|
C#||-------------------------------------|------------------------------------------|


Guitar 2:
D#||----------------------------------------|------------------------------------|
A#||----------------------------------------|------------------------------------|
F#||--7--7------------------10--1010--1010--|--7--7--6---------------------------|
C#||--7--7--5--xx--xx-8--8--8---8-8---8-8---|--7--7--7--xx--xx-8--8--3--3333333--|
G#||--5--5--5--xx--xx-8--8--8---8-8---8-8---|--5--5--4--xx--xx-8--8--3--3333333--|
C#||--------5--xx--xx-8--8------------------|-----------xx--xx-8--8--3--3333333--|


D#||----------------------------------------------------------------------|
A#||----------------------------------------------------------------------|
F#||------------------------------------7--7--6--66--66-------------------|
C#||--0--0--5--55--55--8--8--3--33--33--7--7--7--77--77--8--8--3--33--33--|
G#||--0--0--5--55--55--8--8--3--33--33--5--5--4--44--44--8--8--3--33--33--|
C#||--0--0--5--55--55--8--8--3--33--33-------------------8--8--3--33--33--|



Verse
Guitar 1:
D#||-------------------------------------------|
A#||-------------------------------------------|
F#||----7777777777777------777------777--------|
C#||--0-xxxxxxxxxxxxx-0-0--xxx-0-0--xxx-0--00--|
G#||--0-5555555555555-0-0--555-0-0--555-0--00--|
C#||--0---------------0-0------0-0------0--00--|


D#||-----------------------------------------------------------|
A#||-----------------------------------------------------------|
F#||--10101010101010101010101010------101010------101010-------|
C#||--x-x-x-x-x-x-x-x-x-x-x-x-x--0-0--x-x-x--0-0--x-x-x--0--0--|
G#||--8-8-8-8-8-8-8-8-8-8-8-8-8--0-0--8-8-8--0-0--8-8-8--0--0--|
C#||-----------------------------0-0---------0-0---------0--0--|


Guitar 2:
D#||-------------------------------------------|----------------------------------------|
A#||-------------------------------------------|----------------------------------------|
F#||----7777777777777------777------777--------|--7777777777777------777------777-------|
C#||--0-xxxxxxxxxxxxx-0-0--xxx-0-0--xxx-0--00--|--xxxxxxxxxxxxx-0-0--xxx-0-0--xxx-0--0--|
G#||--0-5555555555555-0-0--555-0-0--555-0--00--|--5555555555555-0-0--555-0-0--555-0--0--|
C#||--0---------------0-0------0-0------0--00--|----------------0-0------0-0------0--0--|



Guitar 1:
D#||-----------------------------------------------------------------|
A#||-----------------------------------------------------------------|
F#||-------10-9------------------------------------------------------|
C#||--8~--------10-12-8--------------------------12--12121212121212--|
G#||--------------------10/12--12--12121212/13-----------------------|
C#||-----------------------------------------------------------------|


Guitar 2:
D#||-----------------------------------------------------------------|
A#||-----------------------------------------------------------------|
F#||-----------------------------------------------------------------|
C#||--8~-----------------------5~--------------------1~--------------|
G#||--8~-----------------------5~--------------------1~--------------|
C#||--8~-----------------------5~--------------------1~--------------|


Guitar 1/2:
D#||-----------------------------------------|-------------|
A#||-----------------------------------------|-------------|
F#||----7777777777777------777---------------|-------------|
C#||--0-xxxxxxxxxxxxx-0-0--xxx-0-0--3--5--7--|--8~-----7~--|
G#||--0-5555555555555-0-0--555-0-0--3--5--7--|--8~-----8~--|
C#||--0---------------0-0------0-0--3--5--7--|--8~-----7~--|



Chorus
Guitar 1:
D#||--------------------------------------|-------------------------------------------------------|
A#||--------------------------------------|-------------------------------------------------------|
F#||---------------9------10--1010--1010--|--10--10--9\-----10-9----------------------------------|
C#||--7---------------10--10--1010--1010--|----------------------10h12p10-------1010101010101010--|
G#||-----8--7\----------------------------|------------------------------10\12--1212121212121212--|
C#||--------------------------------------|-------------------------------------------------------|


D#||-------------------------------------|------------------------------------------|
A#||----------------------5---6--66--66--|------------------------------------------|
F#||--14\-10-9----5-5-5-----5------------|--10101010---10-9~----7\5/10--1010--1010--|
C#||--x-\-x--x----x-x-x------------------|--x-x-x-x----x--x-------------------------|
G#||--12\-8--7----3-3-3------------------|--8-8-8-8----8--7~------------------------|
C#||-------------------------------------|------------------------------------------|


Guitar 2:
D#||----------------------------------------|------------------------------------|
A#||----------------------------------------|------------------------------------|
F#||--7--7------------------10--1010--1010--|--7--7--6---------------------------|
C#||--7--7--5--xx--xx-8--8--8---8-8---8-8---|--7--7--7--xx--xx-8--8--3--3333333--|
G#||--5--5--5--xx--xx-8--8--8---8-8---8-8---|--5--5--4--xx--xx-8--8--3--3333333--|
C#||--------5--xx--xx-8--8------------------|-----------xx--xx-8--8--3--3333333--|


D#||----------------------------------------------------------------------|
A#||----------------------------------------------------------------------|
F#||------------------------------------7--7--6--66--66-------------------|
C#||--0--0--5--55--55--8--8--3--33--33--7--7--7--77--77--8--8--3--33--33--|
G#||--0--0--5--55--55--8--8--3--33--33--5--5--4--44--44--8--8--3--33--33--|
C#||--0--0--5--55--55--8--8--3--33--33-------------------8--8--3--33--33--|



Breakdown
Guitar 1:
D#||------|-------------------------------|-------------------------------|
A#||------|-------------------------------|-------------------------------|
F#||------|-------------------------------|-------------------------------|
C#||--0~--|------------------------7------|------7---7-----8-----8hh10-7--|
G#||--0~--|------5---5------5--------8-5--|-------------------------------|
C#||--0~--|--0-----0----0-------0---------|--3-----3---5------5-----------|
             .     .    .       .            .     .   .      .

D#||-------------------------------|-------------------------|
A#||-------------------------------|-------------------------|
F#||-------------------------------|-------------------------|
C#||------------------------7------|------7---7-----------0--|
G#||------5---5------5--------8-5--|----------------8-----0--|
C#||--0-----0----0-------0---------|--3-----3---5------5--0--|
      .     .    .       .            .     .   .      .  .

Guitar 2:
D#||-----------------------------------------------------|
A#||-----------------------------------------------------|
F#||-----------------------------------------------------|
C#||--0~--------'3~---------------x--'3~---x----------0--|
G#||--0~--------------------------------------'5~~~b--0--|
C#||--0~----------------------------------------------0--|
                                                      .


Guitar 1:
D#||-------------------------------|------------------------------|
A#||-------------------------------|------------------------------|
F#||-------------------------------|------------------------------|
C#||------------------------7------|------7---7-----8-----8h10-7--|
G#||------5---5------5--------8-5--|------------------------------|
C#||--0-----0----0-------0---------|--3-----3---5------5----------|
      .     .    .       .            .     .   .      .

D#||-------------------------------|------------------------------|
A#||-------------------------------|------------------------------|
F#||-------------------------------|------------------------------|
C#||------------------------7------|------7---7-------------------| x2
G#||------5---5------5--------8-5--|----------------8-----8h10-7--|
C#||--0-----0----0-------0---------|--3-----3---5------5----------|
      .     .    .       .            .     .   .      .


Guitar 2:
D#||-------------------------------|------------------------------|
A#||-------------------------------|------------------------------|
F#||-------------------------------|------------------------------|
C#||--0~----------------3~-----8~--|--0~---------------3~-----8~--|
G#||--0~----------------3~-----5~--|--0~---------------3~-----5~--|
C#||--0~----------------3~-----5~--|--0~---------------3~-----5~--|


D#||----------------------------------------|---------------------------------------|
A#||----------------------------------------|---------------------------------------|
F#||----------------------------------------|---------------------------------------|
C#||--0~----------------3~-----5~---8h10-7--|--0~----------------3~-----5~---7h8-5--|
G#||--0~----------------3~-----5~-----------|--0~----------------3~-----5~----------|
C#||--0~----------------3~-----5~-----------|--0~----------------3~-----5~----------|



Bridge
Guitar 1:
D#||---------------------------------------------|--------------------------------------------|
A#||---------------------------------------------|--------------------------------------------|
F#||----7777777777777-------777-------777--------|----7777777777777-------777-------777-------|
C#||--0-xxxxxxxxxxxxx-0--00-xxx-0--00-xxx-0--00--|--0-xxxxxxxxxxxxx-0--00-xxx-0--00-xxx-0--0--|
G#||--0-5555555555555-0--00-555-0--00-555-0--00--|--0-5555555555555-0--00-555-0--00-555-0--0--|
C#||--0---------------0--00-----0--00-----0--00--|--0---------------0--00-----0--00-----0--0--|


Guitar 2:
D#||---------------------------------------------|-------------------------------------------|
A#||---------------------------------------------|-------------------------------------------|
F#||---------------------------------------------|-------------------------------------------|
C#||--0------------------------------------------|--0---------------0--00-----0--00----0--0--|
G#||--0------------------------------------------|--0---------------0--00-----0--00----0--0--|
C#||--0------------------------------------------|--0---------------0--00-----0--00----0--0--|


Guitar 1/2:
D#||--------------------|
A#||--------------------|
F#||--------------------|
C#||--8~-----7~-----8~--|
G#||--8~-----8~-----8~--|
C#||--8~-----7~-----8~--|


Guitar 1:
D#||-----------------------|
A#||-----------------------|
F#||--10-9-----------------|
C#||-------10-12-10-8------|
G#||------------------10~--|
C#||-----------------------|



Chorus
Guitar 1:
D#||--------------------------------------|-------------------------------------------------------|
A#||--------------------------------------|-------------------------------------------------------|
F#||---------------9------10--1010--1010--|--10--10--9\-----10-9----------------------------------|
C#||--7---------------10--10--1010--1010--|----------------------10h12p10-------1010101010101010--|
G#||-----8--7\----------------------------|------------------------------10\12--1212121212121212--|
C#||--------------------------------------|-------------------------------------------------------|


D#||--------------------------------------|--------------------------------------------|
A#||-----------------------5--------------|--------------------------------------------|
F#||--10--1010-9---5-5-5-----5------------|--10101010---10-9--99--9999--7-5------------|
C#||--x---x-x--x---x-x-x-------7--77--77--|--x-x-x-x----x--x--xx--xxxx------7--77--77--|
G#||--8---8-8--7---3-3-3------------------|--8-8-8-8----8--7--77--7777-----------------|
C#||--------------------------------------|--------------------------------------------|


Guitar 2:
D#||----------------------------------------|------------------------------------|
A#||----------------------------------------|------------------------------------|
F#||--7--7------------------10--1010--1010--|--7--7--6---------------------------|
C#||--7--7--5--xx--xx-8--8--8---8-8---8-8---|--7--7--7--xx--xx-8--8--3--3333333--|
G#||--5--5--5--xx--xx-8--8--8---8-8---8-8---|--5--5--4--xx--xx-8--8--3--3333333--|
C#||--------5--xx--xx-8--8------------------|-----------xx--xx-8--8--3--3333333--|


D#||--------------------------------------------------------------------------|
A#||--------------------------------------------------------------------------|
F#||------------------------------------7777--7-6--66--6666-------------------|
C#||--0--0--5--55--55--8--8--3--33--33--7777--7-7--77--7777--8--8--3--33--33--|
G#||--0--0--5--55--55--8--8--3--33--33--5555--5-4--44--4444--8--8--3--33--33--|
C#||--0--0--5--55--55--8--8--3--33--33-----------------------8--8--3--33--33--|



Outro
Guitar 1:
D#||-------------------------------------------|----------------------------------------------|
A#||-------------------------------------------|----------------------------------------------|
F#||----7777777777777------777------777--------|--10101010101010101010101010------101010------|
C#||--0-xxxxxxxxxxxxx-0-0--xxx-0-0--xxx-0--00--|--x-x-x-x-x-x-x-x-x-x-x-x-x--0-0--x-x-x--0-0--|
G#||--0-5555555555555-0-0--555-0-0--555-0--00--|--8-8-8-8-8-8-8-8-8-8-8-8-8--0-0--8-8-8--0-0--|
C#||--0---------------0-0------0-0------0--00--|-----------------------------0-0---------0-0--|


Guitar 2:
D#||-------------------------------------------|------------------------------|
A#||-------------------------------------------|------------------------------|
F#||----7777777777777------777------777--------|--7777777777777------777------|
C#||--0-xxxxxxxxxxxxx-0-0--xxx-0-0--xxx-0--00--|--xxxxxxxxxxxxx-0-0--xxx-0-0--|
G#||--0-5555555555555-0-0--555-0-0--555-0--00--|--5555555555555-0-0--555-0-0--|
C#||--0---------------0-0------0-0------0--00--|----------------0-0------0-0--|





____________________________________________________________________________________________________

                                    T03.   MASSACHUSETTS
____________________________________________________________________________________________________





Tuning: Drop C# (C# G# C# F# A# D#)



Intro
Guitar 1/2:
D#||------------------------------------------------|
A#||------------------------------------------------|
F#||------------------------------------------------|
C#||------------------------------------------------|
G#||--8-8---10-10---8--8----7--7-~----///pick////---|
C#||--0-0---8--8----10-10---10-10~----////slide///--|



Verse
Guitar 1/2:
D#||-------------------------------------------|------------------------------------|
A#||-------------------------------------------|------------------------------------|
F#||----------------------------------9-10-----|------------------------------------|
C#||-------------------------------10------10--|---------------------7---5---3---5--|
G#||------8------10-------7--------------------|------8------10------8---7---5---7--|
C#||--0-----10-0----10-0-------8-8-------------|--0-----10-0----10-0----------------|
               .       .       . . .                       .       .


Guitar 1:
D#||-------------------------------------------|
A#||-------------------------------------------|
F#||----------------------------------9-10-----|
C#||-------------------------------10------10--|
G#||------8------10-------7--------------------|
C#||--0-----10-0----10-0-------8-8-------------|
               .       .       . . .


Guitar 2:
D#||-----------------------------------------|
A#||---------------------------------8-10----|
F#||-------------------------------9------9--|
C#||-----------------------------------------|
G#||------8------10-------7------------------|
C#||--0-----10-0----10-0-------8-8-----------|
               .       .       . . .


Guitar 1/2:
D#||-------------------------------------|
A#||-------------------------------------|
F#||-------------------------------------|
C#||--10--1010--101010--7---77---5---55--|
G#||--8---8-8---8-8-8---3---33---3---33--|
C#||--8---8-8---8-8-8---3---33---2---22--|



Guitar 1/2:
D#||-------------------------------------------|------------------------------------|
A#||-------------------------------------------|------------------------------------|
F#||----------------------------------9-10-----|------------------------------------|
C#||-------------------------------10------10--|---------------------7---5---3---5--|
G#||------8------10-------7--------------------|------8------10------8---7---5---7--|
C#||--0-----10-0----10-0-------8-8-------------|--0-----10-0----10-0----------------|
               .       .       . . .                       .       .


Guitar 1:
D#||-------------------------------------------|
A#||-------------------------------------------|
F#||----------------------------------9-10-----|
C#||-------------------------------10------10--|
G#||------8------10-------7--------------------|
C#||--0-----10-0----10-0-------8-8-------------|
               .       .       . . .


Guitar 2:
D#||-----------------------------------------|
A#||---------------------------------8-10----|
F#||-------------------------------9------9--|
C#||-----------------------------------------|
G#||------8------10-------7------------------|
C#||--0-----10-0----10-0-------8-8-----------|
               .       .       . . .


Guitar 1/2:
D#||----------------------------------------|
A#||----------------------------------------|
F#||----------------------------------------|
C#||--10--1010--101010--7---77-/-10---1010--|
G#||--8---8-8---8-8-8---3---33-/-7----7-7---|
C#||--8---8-8---8-8-8---3---33-/-7----7-7---|



Pre-Chorus
Guitar 1:
D#||---------------------------------------|---------------------|
A#||---------------------------------------|---------------------|
F#||--7~-----9~-----9-~-----10--10--9---7--|--7~-----9~-----9~---|
C#||--8~-----8~-----10~-----10--10--10--5--|--8~-----8~-----10~--|
G#||---------------------------------------|---------------------|
C#||---------------------------------------|---------------------|


D#||----------------|
A#||----------------|
F#||--1010101010-9--|
C#||--7-7-7-7-7--7--|
G#||----------------|
C#||----------------|


Guitar 2:
D#||---------------------------------------------------|
A#||---------------------------------------------------|
F#||---------------------------------------------------|
C#||--8~----------10~----------8~----------10~------7--|
G#||--8~----------10~----------8~----------10~------7--|
C#||--8~----------10~----------8~----------10~------7--|



Chorus
Guitar 1:
D#||---------------------------------------------------------------|
A#||---------------------------------------------------------------|
F#||--10-1010-1012---17-1717-171514--14-1414-141514-12-1212-10--9--|
C#||--x--x-x--x-x----x--x-x--x-x-x---x--x-x--x-x-x--x--x-x--x---x--|
G#||--8--8-8--8-10---15-1515-151312--12-1212-121312-10-1010-8---7--|
C#||---------------------------------------------------------------|


D#||------------------------------------------------------------|
A#||------------------------------------------------------------|
F#||--10-1010-1012---9-99--9-10-9-7-77-777--14--1414--17--1717--|
C#||--x--x-x--x-x----x-xx--x-x--x-x-xx-xxx--x---x-x---x---x-x---|
G#||--8--8-8--8-10---7-77--7-8--7-5-55-555--12--1212--15--1515--|
C#||------------------------------------------------------------|


D#||---------------------------------------------------------------|
A#||---------------------------------------------------------------|
F#||--10-1010-1012---17-1717-171514--14-1414-141514-12-1212-10--9--|
C#||--x--x-x--x-x----x--x-x--x-x-x---x--x-x--x-x-x--x--x-x--x---x--|
G#||--8--8-8--8-10---15-1515-151312--12-1212-121312-10-1010-8---7--|
C#||---------------------------------------------------------------|


D#||-------------------------------------------------------|
A#||-------------------------------------------------------|
F#||--10-1010-1012---9-99--9-10-9-7-77-777-----------------|
C#||--x--x-x--x-x----x-xx--x-x--x-x-xx-xxx-----------------|
G#||--8--8-8--8-10---7-77--7-8--7-5-55-555-----------------|
C#||----------------------------------------x-x-x-x-x-x-x--|


Guitar 2:
D#||------------------------------------------------------|
A#||------------------------------------------------------|
F#||--7-77-777--------------------------------------------|
C#||--7-77-777--10-1010-101010--7-77-777--10-1010-101010--|
G#||--5-55-555--8--8-8--8-8-8---8-88-888--10-1010-101010--|
C#||------------8--8-8--8-8-8---7-77-777--10-1010-101010--|


D#||-----------------------------------------------|
A#||-----------------------------------------------|
F#||---------------------------7-77-777------------|
C#||--8-88-888-10-1010-101010--7-77-777--3-33-333--|
G#||--8-88-888-10-1010-101010--5-55-555--3-33-333--|
C#||--8-88-888-10-1010-101010------------3-33-333--|


D#||------------------------------------------------------|
A#||------------------------------------------------------|
F#||--7-77-777--------------------------------------------|
C#||--7-77-777--10-1010-101010--7-77-777--10-1010-101010--|
G#||--5-55-555--8--8-8--8-8-8---8-88-888--10-1010-101010--|
C#||------------8--8-8--8-8-8---7-77-777--10-1010-101010--|


D#||----------------------------------------------------|
A#||----------------------------------------------------|
F#||---------------------------7-77-777-----------------|
C#||--8-88-888-10-1010-101010--7-77-777-----------------|
G#||--8-88-888-10-1010-101010--5-55-555-----------------|
C#||--8-88-888-10-1010-101010------------x-x-x-x-x-x-x--|



Pre-Verse
Guitar 1:
D#||-------------------------------------------|------------------------------------|
A#||-------------------------------------------|------------------------------------|
F#||----------------------------------9-10-----|------------------------------------|
C#||-------------------------------10------10--|---------------------7---5---3---5--|
G#||------8------10-------7--------------------|------8------10------8---7---5---7--|
C#||--0-----10-0----10-0-------8-8-------------|--0-----10-0----10-0----------------|
               .       .       . . .                       .       .


Guitar 2:
D#||-------------------------------------------|------------------------------------|
A#||-------------------------------------------|------------------------------------|
F#||-------------------------------------------|------------------------------------|
C#||-------------------------------------------|---------------------7---5---3---5--|
G#||-------------------------------------------|---///pick////-------8---7---5---7--|
C#||-------------------------------------------|---////slide///---------------------|



Verse
Guitar 1:
D#||-------------------------------------------|
A#||-------------------------------------------|
F#||----------------------------------9-10-----|
C#||-------------------------------10------10--|
G#||------8------10-------7--------------------|
C#||--0-----10-0----10-0-------8-8-------------|
               .       .       . . .


Guitar 2:
D#||-----------------------------------------|
A#||---------------------------------8-10----|
F#||-------------------------------9------9--|
C#||-----------------------------------------|
G#||------8------10-------7------------------|
C#||--0-----10-0----10-0-------8-8-----------|
               .       .       . . .


Guitar 1/2:
D#||-------------------------------------|
A#||-------------------------------------|
F#||-------------------------------------|
C#||--10--1010--101010--7---77---5---55--|
G#||--8---8-8---8-8-8---3---33---3---33--|
C#||--8---8-8---8-8-8---3---33---2---22--|


D#||-------------------------------------------|------------------------------------|
A#||-------------------------------------------|------------------------------------|
F#||----------------------------------9-10-----|------------------------------------|
C#||-------------------------------10------10--|---------------------7---5---3---5--|
G#||------8------10-------7--------------------|------8------10------8---7---5---7--|
C#||--0-----10-0----10-0-------8-8-------------|--0-----10-0----10-0----------------|
               .       .       . . .                       .       .


Guitar 1:
D#||-------------------------------------------|
A#||-------------------------------------------|
F#||----------------------------------9-10-----|
C#||-------------------------------10------10--|
G#||------8------10-------7--------------------|
C#||--0-----10-0----10-0-------8-8-------------|
               .       .       . . .


Guitar 2:
D#||-----------------------------------------|
A#||---------------------------------8-10----|
F#||-------------------------------9------9--|
C#||-----------------------------------------|
G#||------8------10-------7------------------|
C#||--0-----10-0----10-0-------8-8-----------|
               .       .       . . .


Guitar 1/2:
D#||----------------------------------------|
A#||----------------------------------------|
F#||----------------------------------------|
C#||--10--1010--101010--7---77-/-10---1010--|
G#||--8---8-8---8-8-8---3---33-/-7----7-7---|
C#||--8---8-8---8-8-8---3---33-/-7----7-7---|



Pre-Chorus
Guitar 1:
D#||---------------------------------------|---------------------|
A#||---------8~----------------------------|---------------------|
F#||--7~-----9~-----9-~-----10--10--9---7--|--7~-----9~-----9~---|
C#||--8~------------10~-----10--10--10--5--|--8~-----8~-----10~--|
G#||---------------------------------------|---------------------|
C#||---------------------------------------|---------------------|


D#||----------------|
A#||-------------8--|
F#||--1010101010-x--|
C#||--7-7-7-7-7--7--|
G#||----------------|
C#||----------------|


Guitar 2:
D#||---------------------------------------------------|
A#||---------------------------------------------------|
F#||---------------------------------------------------|
C#||--8~----------10~----------8~----------10~------7--|
G#||--8~----------10~----------8~----------10~------7--|
C#||--8~----------10~----------8~----------10~------7--|



Chorus
Guitar 1:
D#||---------------------------------------------------------------|
A#||---------------------------------------------------------------|
F#||--10-1010-1012---17-1717-171514--14-1414-141514-12-1212-10--9--|
C#||--x--x-x--x-x----x--x-x--x-x-x---x--x-x--x-x-x--x--x-x--x---x--|
G#||--8--8-8--8-10---15-1515-151312--12-1212-121312-10-1010-8---7--|
C#||---------------------------------------------------------------|


D#||------------------------------------------------------------|
A#||------------------------------------------------------------|
F#||--10-1010-1012---9-99--9-10-9-7-77-777--14--1414--17--1717--|
C#||--x--x-x--x-x----x-xx--x-x--x-x-xx-xxx--x---x-x---x---x-x---|
G#||--8--8-8--8-10---7-77--7-8--7-5-55-555--12--1212--15--1515--|
C#||------------------------------------------------------------|


D#||---------------------------------------------------------------|
A#||---------------------------------------------------------------|
F#||--10-1010-1012---17-1717-171514--14-1414-141514-12-1212-10--9--|
C#||--x--x-x--x-x----x--x-x--x-x-x---x--x-x--x-x-x--x--x-x--x---x--|
G#||--8--8-8--8-10---15-1515-151312--12-1212-121312-10-1010-8---7--|
C#||---------------------------------------------------------------|


D#||-------------------------------------------------------|
A#||-------------------------------------------------------|
F#||--10-1010-1012---9-99--9-10-9-7-77-777-----------------|
C#||--x--x-x--x-x----x-xx--x-x--x-x-xx-xxx-----------------|
G#||--8--8-8--8-10---7-77--7-8--7-5-55-555-----------------|
C#||----------------------------------------x-x-x-x-x-x-x--|


Guitar 2:
D#||------------------------------------------------------|
A#||------------------------------------------------------|
F#||--7-77-777--------------------------------------------|
C#||--7-77-777--10-1010-101010--7-77-777--10-1010-101010--|
G#||--5-55-555--8--8-8--8-8-8---8-88-888--10-1010-101010--|
C#||------------8--8-8--8-8-8---7-77-777--10-1010-101010--|


D#||-----------------------------------------------|
A#||-----------------------------------------------|
F#||---------------------------7-77-777------------|
C#||--8-88-888-10-1010-101010--7-77-777--3-33-333--|
G#||--8-88-888-10-1010-101010--5-55-555--3-33-333--|
C#||--8-88-888-10-1010-101010------------3-33-333--|


D#||------------------------------------------------------|
A#||------------------------------------------------------|
F#||--7-77-777--------------------------------------------|
C#||--7-77-777--10-1010-101010--7-77-777--10-1010-101010--|
G#||--5-55-555--8--8-8--8-8-8---8-88-888--10-1010-101010--|
C#||------------8--8-8--8-8-8---7-77-777--10-1010-101010--|


D#||----------------------------------------------------|
A#||----------------------------------------------------|
F#||---------------------------7-77-777-----------------|
C#||--8-88-888-10-1010-101010--7-77-777-----------------|
G#||--8-88-888-10-1010-101010--5-55-555-----------------|
C#||--8-88-888-10-1010-101010------------x-x-x-x-x-x-x--|



Breakdown
Guitar 1/2:
D#||---------------------------------------------------------------------------------------------|
A#||---------------------------------------------------------------------------------------------|
F#||---------------------------------------------------------------------------------------------|
C#||--7-\-----------------------------7-\-------------------------------6------------------------|
G#||--5-\--0-0-0-----0-0-0-0----0-3/5-5-\--0-0-0-0-----0-0-0-0----8-5-7-4---0-0-0-0-----0-0-0-0--|
C#||-------0-0-0-----0-0-0-0----0-3/5------0-0-0-0-----0-0-0-0----8-5-7-----0-0-0-0-----0-0-0-0--|
           . . .     . . . .               . . . .     . . . .              . . . .     . . . .

D#||---------------------------------------------|
A#||---------------------------------------------|
F#||---------------------------------------------|
C#||---------------------------------------------|
G#||--0-5-7-8---8-8-8-8-----8-10-10-10----8-7-5--|
C#||--0-5-7-8---8-8-8-8-----8-10-10-10----8-7-5--|
                . . . .     . .  .  .

D#||---------------------------------------------------------------------------------------------|
A#||---------------------------------------------------------------------------------------------|
F#||---------------------------------------------------------------------------------------------|
C#||--7-\-----------------------------7-\-------------------------------6------------------------|
G#||--5-\--0-0-0-----0-0-0-0----0-3/5-5-\--0-0-0-0-----0-0-0-0----8-5-7-4---0-0-0-0-----0-0-0-0--|
C#||-------0-0-0-----0-0-0-0----0-3/5------0-0-0-0-----0-0-0-0----8-5-7-----0-0-0-0-----0-0-0-0--|
           . . .     . . . .               . . . .     . . . .              . . . .     . . . .

D#||---------------------------------------------|
A#||---------------------------------------------|
F#||---------------------------------------------|
C#||--------10--1010--101010---11--1111--111111--|
G#||--0-5-7-8---8-8---8-8-8----12--1212--121212--|
C#||--0-5-7-8---8-8---8-8-8----11--1111--111111--|



Interlude
Guitar 1:
D#||---------------------------------------|---------------------|
A#||---------------------------------------|---------------------|
F#||--7~-----9~-----9-~-----10--10--9---7--|--7~-----9~-----9~---|
C#||--8~------------10~-----------------5--|--8~------------10~--|
G#||---------------------------------------|---------------------|
C#||---------------------------------------|---------------------|


D#||----------------|
A#||----------------|
F#||--1010101010-9--|
C#||--7-7-7-7-7--7--|
G#||----------------|
C#||----------------|


Guitar 2:
D#||----------------|
A#||----------------|
F#||----------------|
C#||--7-7-7-7-7-7---|
G#||--7-7-7-7-7-7---|
C#||--7-7-7-7-7-7---|



Chorus
Guitar 1:
D#||---------------------------------------------------------------|
A#||---------------------------------------------------------------|
F#||--10-1010-1012---17-1717-171514--14-1414-141514-12-1212-10--9--|
C#||--x--x-x--x-x----x--x-x--x-x-x---x--x-x--x-x-x--x--x-x--x---x--|
G#||--8--8-8--8-10---15-1515-151312--12-1212-121312-10-1010-8---7--|
C#||---------------------------------------------------------------|


D#||------------------------------------------------------------|
A#||------------------------------------------------------------|
F#||--10-1010-1012---9-99--9-10-9-7-77-777--14--1414--17--1717--|
C#||--x--x-x--x-x----x-xx--x-x--x-x-xx-xxx--x---x-x---x---x-x---|
G#||--8--8-8--8-10---7-77--7-8--7-5-55-555--12--1212--15--1515--|
C#||------------------------------------------------------------|


D#||---------------------------------------------------------------|
A#||---------------------------------------------------------------|
F#||--10-1010-1012---17-1717-171514--14-1414-141514-12-1212-10--9--|
C#||--x--x-x--x-x----x--x-x--x-x-x---x--x-x--x-x-x--x--x-x--x---x--|
G#||--8--8-8--8-10---15-1515-151312--12-1212-121312-10-1010-8---7--|
C#||---------------------------------------------------------------|


D#||-------------------------------------------------------|
A#||-------------------------------------------------------|
F#||--10-1010-1012---9-99--9-10-9-7-77-777-----------------|
C#||--x--x-x--x-x----x-xx--x-x--x-x-xx-xxx-----------------|
G#||--8--8-8--8-10---7-77--7-8--7-5-55-555-----------------|
C#||----------------------------------------x-x-x-x-x-x-x--|


Guitar 2:
D#||------------------------------------------------------|
A#||------------------------------------------------------|
F#||--7-77-777--------------------------------------------|
C#||--7-77-777--10-1010-101010--7-77-777--10-1010-101010--|
G#||--5-55-555--8--8-8--8-8-8---8-88-888--10-1010-101010--|
C#||------------8--8-8--8-8-8---7-77-777--10-1010-101010--|


D#||-----------------------------------------------|
A#||-----------------------------------------------|
F#||---------------------------7-77-777------------|
C#||--8-88-888-10-1010-101010--7-77-777--3-33-333--|
G#||--8-88-888-10-1010-101010--5-55-555--3-33-333--|
C#||--8-88-888-10-1010-101010------------3-33-333--|


D#||------------------------------------------------------|
A#||------------------------------------------------------|
F#||--7-77-777--------------------------------------------|
C#||--7-77-777--10-1010-101010--7-77-777--10-1010-101010--|
G#||--5-55-555--8--8-8--8-8-8---8-88-888--10-1010-101010--|
C#||------------8--8-8--8-8-8---7-77-777--10-1010-101010--|


D#||----------------------------------------------------|
A#||----------------------------------------------------|
F#||---------------------------7-77-777-----------------|
C#||--8-88-888-10-1010-101010--7-77-777-----------------|
G#||--8-88-888-10-1010-101010--5-55-555-----------------|
C#||--8-88-888-10-1010-101010------------x-x-x-x-x-x-x--|



Outro
Guitar 1:
D#||---------------------------------------------------------------------|
A#||---------------------------------------------------------------------|
F#||---------------------------------------------------------------------|
C#||--7-\-----------------------------7-\--------------------------------|
G#||--5-\--0-0-0-----0-0-0-0----0-3/5-5-\--0-0-0-0-----0-0-0-0----8-5-7--|
C#||-------0-0-0-----0-0-0-0----0-3/5------0-0-0-0-----0-0-0-0----8-5-7--|
           . . .     . . . .               . . . .     . . . .          

Guitar 2:
D#||-------------------------------------------|------------------------------------|
A#||-------------------------------------------|------------------------------------|
F#||----------------------------------9-10-----|------------------------------------|
C#||-------------------------------10------10--|---------------------7---5---3---5--|
G#||------8------10-------7--------------------|------8------10------8---7---5---7--|
C#||--0-----10-0----10-0-------8-8-------------|--0-----10-0----10-0----------------|
               .       .       . . .                       .       .

Guitar 1/2:
D#||-----------------------------------------------------------------------------|
A#||-----------------------------------------------------------------------------|
F#||-----------------------------------------------------------------------------|
C#||--6---------------------------------------------------------------------7-\--|
G#||--4---0-0-0-0-----0-0-0-0-----0-5-7-8---8-8-8-8-----8-10-10-10----8-7-5-5-\--|
C#||------0-0-0-0-----0-0-0-0-----0-5-7-8---8-8-8-8-----8-10-10-10----8-7-5------|
          . . . .     . . . .               . . . .     . .  .  .






____________________________________________________________________________________________________

                                     T04.   THIS IS HOW
____________________________________________________________________________________________________





Tuning: Half-Step Down (D# G# C# F# A# D#)



Guitar 1:
D#||--------------------------------------------------------------2~--|
A#||--------3~--------------3~--------------3~--------------5~----3~--|
F#||-----2~--------------0~--------------2~--------------2~-------x---|
C#||--0~------------------------------4~--------------2~----------4~--| x2
G#||------------------2~------------------------------------------x---|
D#||--------------------------------------------------------------2~--|


D#||------------------------------------------------------------------|
A#||--------3~--------------------------------------------------------|
F#||-----2~-------2~---------2~------------------------------2~-------|
C#||--0~-------------------------------------4~--------0~----------0--| x3
G#||-------------------4~----------4---2~----------2------------------|
D#||------------------------------------------------------------------|


D#||-----------------------------------------|
A#||--------3~-------------------------3~----|
F#||-----2~-------2~---------2~--------2~----|
C#||--0~-------------------------------0~----|
G#||-------------------4~----------4---------|
D#||-----------------------------------------|


Guitar 2:
D#||------------------------------------------------------------------------|
A#||--7777777777777777-8888888888888888-7777777777777777-55555555-----------|
F#||--------------------------------------------------------------66666666--|
C#||------------------------------------------------------------------------|
G#||------------------------------------------------------------------------|
D#||------------------------------------------------------------------------|


D#||---------------------------------------------------------------------------------------|
A#||-------------------5555555555555555-7777777777777777-10101010101010101010101010101010--|
F#||--7777777777777777---------------------------------------------------------------------|
C#||---------------------------------------------------------------------------------------| x3
G#||---------------------------------------------------------------------------------------|
D#||---------------------------------------------------------------------------------------|


D#||-----------------------------------------|
A#||-------------------5555555555555555------|
F#||--7777777777777777-------------------7~--|
C#||-----------------------------------------|
G#||-----------------------------------------|
D#||-----------------------------------------|





____________________________________________________________________________________________________

                                    T05.   A BETTER PLACE
____________________________________________________________________________________________________





Tuning: Half-Step Down (D# G# C# F# A# D#)



Intro
Guitar 1:
D#||------------------------------------------------------|
A#||--5~----------7~------8~------5~----------7~---5--8~--|
F#||-----------7-------7-------7-----------7--------------|
C#||------------------------------------------------------|
G#||------------------------------------------------------|
D#||------------------------------------------------------|


Guitar 2:
D#||------------------------------------------------------|
A#||--5~----------7~------8~------5~----------7~------8~--|
F#||--x-----------x-------x-------x-----------x-------x---|
C#||--5~----------7~------9~------5~----------7~------9~--|
G#||------------------------------------------------------|
D#||------------------------------------------------------|



Verse
Guitar 1:
D#||--------------------------------------------------------------------|
A#||--5---5--5-5-5-5-5-5-5-5-5-5-5-----7-7-7-7-7-7-----8-8-8-8-8-8------|
F#||-------------------------------7-7-------------7-7-------------7-7--|
C#||--------------------------------------------------------------------|
G#||--------------------------------------------------------------------|
D#||--------------------------------------------------------------------|
             . . . . . . . . . . . . . . . . . . . . . . . . . . . . .

D#||----------------------------------------------------------------------|
A#||--5---5--5-5-5-5-5-5-5-5-5-5-5-----7-7-7-7-7-7-----8-8-8-8-8-8-8-8-8--|
F#||-------------------------------7-7-------------7-7--------------------|
C#||----------------------------------------------------------------------|
G#||----------------------------------------------------------------------|
D#||----------------------------------------------------------------------|
             . . . . . . . . . . . . . . . . . . . . . . .

Guitar 2:
D#||--------------------------------------------------------------------|
A#||--5---5--5-5-5-5-5-5-5-5-5-5-5-5-5-7-7-7-7-7-7-7-7-8-8-8-8-8-8-8-8--|
F#||--x---x--x-x-x-x-x-x-x-x-x-x-x-x-x-x-x-x-x-x-x-x-x-x-x-x-x-x-x-x-x--|
C#||--5---5--5-5-5-5-5-5-5-5-5-5-5-5-5-7-7-7-7-7-7-7-7-9-9-9-9-9-9-9-9--|
G#||--------------------------------------------------------------------|
D#||--------------------------------------------------------------------|
             . . . . . . . . . . . . . . . . . . . . . . . . . . . . .

D#||----------------------------------------------------------------------|
A#||--5---5--5-5-5-5-5-5-5-5-5-5-5-5-5-7-7-7-7-7-7-7-7-8-8-8-8-8-8-8-8-8--|
F#||--x---x--x-x-x-x-x-x-x-x-x-x-x-x-x-x-x-x-x-x-x-x-x-x-x-x-x-x-x-x-x-x--|
C#||--5---5--5-5-5-5-5-5-5-5-5-5-5-5-5-7-7-7-7-7-7-7-7-9-9-9-9-9-9-9-9-9--|
G#||----------------------------------------------------------------------|
D#||----------------------------------------------------------------------|
             . . . . . . . . . . . . . . . . . . . . . . .



Pre-Chorus
Guitar 1:
D#||----------------------------------------|-----------------------------------------|
A#||----------------------------------------|-----------------15---17~----1717171717--|
F#||--14---12---16---11---12~---------11----|--12---14---16---x----x------x-x-x-x-x---|
C#||--x----x----x----x----x-----------x-----|--x----x----x----12---14~----1414141414--|
G#||--12---10---14---9----10~---------9-----|--10---12---14---------------------------|
D#||----------------------------------------|-----------------------------------------|


Guitar 2:
D#||----------------------------------------|-------------------------------------|
A#||----------------------------------------|-------------------------------------|
F#||----------------------------------------|-------------------------------------|
C#||-----------------4444-5555555555555555--|-----------------4444-5555555555555--|
G#||--2222-4444-5555-2222-3333333333333333--|--2222-4444-5555-2222-3333333333333--|
D#||--0000-2222-3333------------------------|--0000-2222-3333---------------------|
      .... .... .... .... ................     .... .... .... .... ........



Chorus
Guitar 1:
D#||--------------------------------------------------------------------------|
A#||--------------------------------------------------------------------------|
F#||--14141414-12121212-16161616-11111111-121212121212121212121212---16~--14--|
C#||--x-x-x-x--x-x-x-x--x-x-x-x--x-x-x-x--x-x-x-x-x-x-x-x-x-x-x-x----x----x---|
G#||--12121212-10101010-14141414-9-9-9-9--101010101010101010101010---14~--12--|
D#||--------------------------------------------------------------------------|

D#||------------------------------------------------------------------------|
A#||-----------------------------15151515-17171717171717171717171717171717--|
F#||--12121212-14141414-16161616-x-x-x-x--x-x-x-x-x-x-x-x-x-x-x-x-x-x-x-x---|
C#||--x-x-x-x--x-x-x-x--x-x-x-x--12121212-14141414141414141414141414141414--|
G#||--10101010-12121212-14141414--------------------------------------------|
D#||------------------------------------------------------------------------|

D#||--------------------------------------------------------------------------|
A#||--------------------------------------------------------------------------|
F#||--14141414-12121212-16161616-11111111-121212121212121212121212---16~--14--|
C#||--x-x-x-x--x-x-x-x--x-x-x-x--x-x-x-x--x-x-x-x-x-x-x-x-x-x-x-x----x----x---|
G#||--12121212-10101010-14141414-9-9-9-9--101010101010101010101010---14~--12--|
D#||--------------------------------------------------------------------------|

D#||-------------------------------------------------------|
A#||-----------------------------15151515-17171717171717~--|
F#||--12121212-14141414-16161616-x-x-x-x--x-x-x-x-x-x-x----|
C#||--x-x-x-x--x-x-x-x--x-x-x-x--12121212-14141414141414~--|
G#||--10101010-12121212-14141414---------------------------|
D#||-------------------------------------------------------|


Guitar 2:
D#||-------------------------------------------|------------------------------------------------|
A#||-------------------------------------------|------------------------------------------------|
F#||-------------------------------------------|------------------------------------------------|
C#||-----------------5555-555555555555---7--8--|--9999-12121212-12121212-4444-5555555555555555--|
G#||--2222-5555-5555-2222-333333333333---5--6--|--7777-9-9-9-9--10101010-2222-3333333333333333--|
D#||--0000-2222-3333---------------------------|------------------------------------------------|

D#||-------------------------------------------|-----------------------------------------------|
A#||-------------------------------------------|-----------------------------------------------|
F#||-------------------------------------------|-----------------------------------------------|
C#||-----------------5555-555555555555---7--8--|--9999-12121212-12121212-4444-555555555555555--|
G#||--2222-5555-5555-2222-333333333333---5--6--|--7777-9-9-9-9--10101010-2222-333333333333333--|
D#||--0000-2222-3333---------------------------|-----------------------------------------------|
                                                                                       ....



Pre-Verse
Guitar 1:
D#||------------------------------------------------------|
A#||--5~--------------------------5~-------8--5~----------|
F#||---------------------------7----------------------7\--|
C#||------------------------------------------------------|
G#||------------------------------------------------------|
D#||------------------------------------------------------|


Guitar 2:
D#||------------------------------------------------------|
A#||--5~----------7~------8~------5~----------7~------8\--|
F#||--x-----------x-------x-------x-----------x-------x\--|
C#||--5~----------7~------9~------5~----------7~------9\--|
G#||------------------------------------------------------|
D#||------------------------------------------------------|



Verse
Guitar 1:
D#||--------------------------------------------------------------------|
A#||--5---5--5-5-5-5-5-5-5-5-5-5-5-----7-7-7-7-7-7-----8-8-8-8-8-8------|
F#||-------------------------------7-7-------------7-7-------------7-7--|
C#||--------------------------------------------------------------------|
G#||--------------------------------------------------------------------|
D#||--------------------------------------------------------------------|
             . . . . . . . . . . . . . . . . . . . . . . . . . . . . .

D#||----------------------------------------------------------------------|
A#||--5---5--5-5-5-5-5-5-5-5-5-5-5-----7-7-7-7-7-7-----8-8-8-8-8-8-8-8-8--|
F#||-------------------------------7-7-------------7-7--------------------|
C#||----------------------------------------------------------------------|
G#||----------------------------------------------------------------------|
D#||----------------------------------------------------------------------|
             . . . . . . . . . . . . . . . . . . . . . . .

Guitar 2:
D#||--------------------------------------------------------------------|
A#||--5---5--5-5-5-5-5-5-5-5-5-5-5-5-5-7-7-7-7-7-7-7-7-8-8-8-8-8-8-8-8--|
F#||--x---x--x-x-x-x-x-x-x-x-x-x-x-x-x-x-x-x-x-x-x-x-x-x-x-x-x-x-x-x-x--|
C#||--5---5--5-5-5-5-5-5-5-5-5-5-5-5-5-7-7-7-7-7-7-7-7-9-9-9-9-9-9-9-9--|
G#||--------------------------------------------------------------------|
D#||--------------------------------------------------------------------|
             . . . . . . . . . . . . . . . . . . . . . . . . . . . . .

D#||----------------------------------------------------------------------|
A#||--5---5--5-5-5-5-5-5-5-5-5-5-5-5-5-7-7-7-7-7-7-7-7-8-8-8-8-8-8-8-8-8--|
F#||--x---x--x-x-x-x-x-x-x-x-x-x-x-x-x-x-x-x-x-x-x-x-x-x-x-x-x-x-x-x-x-x--|
C#||--5---5--5-5-5-5-5-5-5-5-5-5-5-5-5-7-7-7-7-7-7-7-7-9-9-9-9-9-9-9-9-9--|
G#||----------------------------------------------------------------------|
D#||----------------------------------------------------------------------|
             . . . . . . . . . . . . . . . . . . . . . . .



Pre-Chorus
Guitar 1:
D#||-------------------------------------------|
A#||-----------------15---17~------------------|
F#||--14---12---16---x----x--------------------|
C#||--x----x----x----12---14~------------------|
G#||--12---10---14---------------///pick////---|
D#||-----------------------------////slide///--|


Guitar 2 (Dub):
D#||-------------------------------------------|
A#||-------------------------------------------|
F#||--14---12---16---11---12~------------------|
C#||--x----x----x----x----x--------------------|
G#||--12---10---14---9----10~----///pick////---|
D#||-----------------------------////slide///--|


Guitar 3:
D#||-------------------------------------------|
A#||-------------------------------------------|
F#||-------------------------------------------|
C#||-----------------5~---5~-------------------|
G#||--2~---5~---5~---2~---3~-----///pick////---|
D#||--0~---2~---3~---------------////slide///--|



Chorus
Guitar 1:
D#||--------------------------------------------------------------------------|
A#||--------------------------------------------------------------------------|
F#||--14141414-12121212-16161616-11111111-121212121212121212121212---16~--14--|
C#||--x-x-x-x--x-x-x-x--x-x-x-x--x-x-x-x--x-x-x-x-x-x-x-x-x-x-x-x----x----x---|
G#||--12121212-10101010-14141414-9-9-9-9--101010101010101010101010---14~--12--|
D#||--------------------------------------------------------------------------|

D#||------------------------------------------------------------------------|
A#||-----------------------------15151515-17171717171717171717171717171717--|
F#||--12121212-14141414-16161616-x-x-x-x--x-x-x-x-x-x-x-x-x-x-x-x-x-x-x-x---|
C#||--x-x-x-x--x-x-x-x--x-x-x-x--12121212-14141414141414141414141414141414--|
G#||--10101010-12121212-14141414--------------------------------------------|
D#||------------------------------------------------------------------------|

D#||--------------------------------------------------------------------------|
A#||--------------------------------------------------------------------------|
F#||--14141414-12121212-16161616-11111111-121212121212121212121212---16~--14--|
C#||--x-x-x-x--x-x-x-x--x-x-x-x--x-x-x-x--x-x-x-x-x-x-x-x-x-x-x-x----x----x---|
G#||--12121212-10101010-14141414-9-9-9-9--101010101010101010101010---14~--12--|
D#||--------------------------------------------------------------------------|

D#||-----------------------------------------------------------------------|
A#||-----------------------------15151515-171717171717171717171717-161616--|
F#||--12121212-14141414-16161616-x-x-x-x--x-x-x-x-x-x-x-x-x-x-x-x--x-x-x---|
C#||--x-x-x-x--x-x-x-x--x-x-x-x--12121212-141414141414141414141414-141414--|
G#||--10101010-12121212-14141414-------------------------------------------|
D#||-----------------------------------------------------------------------|


Guitar 2:
D#||-------------------------------------------|------------------------------------------------|
A#||-------------------------------------------|------------------------------------------------|
F#||-------------------------------------------|------------------------------------------------|
C#||-----------------5555-555555555555---7--8--|--9999-12121212-12121212-4444-5555555555555555--|
G#||--2222-5555-5555-2222-333333333333---5--6--|--7777-9-9-9-9--10101010-2222-3333333333333333--|
D#||--0000-2222-3333---------------------------|------------------------------------------------|

D#||-------------------------------------------|------------------------------------------------|
A#||-------------------------------------------|------------------------------------------------|
F#||-------------------------------------------|------------------------------------------------|
C#||-----------------5555-555555555555---7--8--|--9999-12121212-12121212-4444-555555555555-444--|
G#||--2222-5555-5555-2222-333333333333---5--6--|--7777-9-9-9-9--10101010-2222-333333333333-222--|
D#||--0000-2222-3333---------------------------|------------------------------------------------|



Breakdown
Guitar 1:
D#||------------------------------------|----------------------------------|
A#||------------------------------------|----------------------------------|
F#||------------------------------------|----------------------------------|
C#||-------12---9--10-------------------|-------12---9--10-----------------|
G#||-------14---10-12---9----10---9-9---|-------14---10-12------10----10~--|
D#||--000---------------10---12---1111--|--000--------------000-12-00-12~--|


D#||------------------------------------|-----------------------------------|
A#||------------------------------------|-----------------------------------|
F#||------------------------------------|-----------------------------------|
C#||----------9-------------------------|-------12---9--10------------------|
G#||----------10--------9----10---9-9---|-------14---10-12--------10-10-10--|
D#||--000---------------10---12---1010--|--000--------------00000-12-12-12--|


Guitar 2:
D#||------------------------------------|----------------------------------|
A#||------------------------------------|----------------------------------|
F#||------------------------------------|----------------------------------|
C#||--222-------------------------------|--222-----------------------------|
G#||--222-------------------------------|--222------------------7----7~----|
D#||--000-------------------------------|--000--------------000---00-------|


D#||------------------------------------|-----------------------------------|
A#||------------------------------------|-----------------------------------|
F#||------------------------------------|-----------------------------------|
C#||--222-----5-------------------------|--222--------------------5--5--5---|
G#||--222-----7-------------------------|--222--------------------7--7--7---|
D#||--000-------------------------------|--000--------------00000-----------|



Bridge
Guitar 1:
D#||------------------------------------|
A#||------------------------------------|
F#||------------------------------------|
C#||-------12---9--10-------------------| x4
G#||-------14---10-12---9----10---9-9---|
D#||--000---------------10---12---1010--|


Guitar 2:
D#||---------------------------------------|---------------------------------------|
A#||---------------------------------------|---------------------------------------|
F#||---------------------------------------|---------------------------------------|
C#||--55555555-44444444--------------------|--55555555-44444444--------------------|
G#||--33333333-22222222-22222222-55555555--|--33333333-22222222-22222222-55555555--|
D#||--------------------00000000-33333333--|--------------------00000000-33333333--|



Interlude
Guitar 1:
D#||--------------------------------------------------------------------------|
A#||--------------------------------------------------------------------------|
F#||--14141414-12121212-16161616-11111111-121212121212121212121212-111111111--|
C#||--x-x-x-x--x-x-x-x--x-x-x-x--x-x-x-x--x-x-x-x-x-x-x-x-x-x-x-x--x-x-x-x----|
G#||--12121212-10101010-14141414-9-9-9-9--101010101010101010101010-9-9-9-9----|
D#||--------------------------------------------------------------------------|

D#||--------------------------------------------------------------------------|
A#||-----------------------------15151515-1717171717171717-15151515-16161616--|
F#||--12121212-14141414-16161616-x-x-x-x--x-x-x-x-x-x-x-x--x-x-x-x--x-x-x-x---|
C#||--x-x-x-x--x-x-x-x--x-x-x-x--12121212-1414141414141414-12121212-13131313--|
G#||--10101010-12121212-14141414----------------------------------------------|
D#||--------------------------------------------------------------------------|


Guitar 2:
D#||--------------------------------------------------------------------------|
A#||--------------------------------------------------------------------------|
F#||--------------------------------------555---------------------------------|
C#||--222---------------------------------555---------------------------------|
G#||--222---------------------------------333---------------------------------|
D#||--000---------------------------------------------------------------------|


D#||--------------------------------------------------------------------------|
A#||--------------------------------------------------------------------------|
F#||--------------------------------------5~---------------7~-------8~--------|
C#||--222---------------------------------5~---------------7~-------8~--------|
G#||--222---------------------------------3~---------------5~-------6~--------|
D#||--000---------------------------------------------------------------------|



Chorus
Guitar 1:
D#||--------------------------------------------------------------------------|
A#||--------------------------------------------------------------------------|
F#||--14141414-12121212-16161616-11111111-121212121212121212121212---16~--14--|
C#||--x-x-x-x--x-x-x-x--x-x-x-x--x-x-x-x--x-x-x-x-x-x-x-x-x-x-x-x----x----x---|
G#||--12121212-10101010-14141414-9-9-9-9--101010101010101010101010---14~--12--|
D#||--------------------------------------------------------------------------|

D#||------------------------------------------------------------------------|
A#||-----------------------------15151515-17171717171717171717171717171717--|
F#||--12121212-14141414-16161616-x-x-x-x--x-x-x-x-x-x-x-x-x-x-x-x-x-x-x-x---|
C#||--x-x-x-x--x-x-x-x--x-x-x-x--12121212-14141414141414141414141414141414--|
G#||--10101010-12121212-14141414--------------------------------------------|
D#||------------------------------------------------------------------------|

D#||--------------------------------------------------------------------------|
A#||--------------------------------------------------------------------------|
F#||--14141414-12121212-16161616-11111111-121212121212121212121212---16~--14--|
C#||--x-x-x-x--x-x-x-x--x-x-x-x--x-x-x-x--x-x-x-x-x-x-x-x-x-x-x-x----x----x---|
G#||--12121212-10101010-14141414-9-9-9-9--101010101010101010101010---14~--12--|
D#||--------------------------------------------------------------------------|

D#||-----------------------------------------------------------------------|
A#||-----------------------------15151515-171717171717171717171717-161616--|
F#||--12121212-14141414-16161616-x-x-x-x--x-x-x-x-x-x-x-x-x-x-x-x--x-x-x---|
C#||--x-x-x-x--x-x-x-x--x-x-x-x--12121212-141414141414141414141414-131313--|
G#||--10101010-12121212-14141414-------------------------------------------|
D#||-----------------------------------------------------------------------|


Guitar 2:
D#||-------------------------------------------|------------------------------------------------|
A#||-------------------------------------------|------------------------------------------------|
F#||-------------------------------------------|------------------------------------------------|
C#||-----------------5555-555555555555---7--8--|--9999-12121212-12121212-4444-5555555555555555--|
G#||--2222-5555-5555-2222-333333333333---5--6--|--7777-9-9-9-9--10101010-2222-3333333333333333--|
D#||--0000-2222-3333---------------------------|------------------------------------------------|

D#||-------------------------------------------|------------------------------------------------|
A#||-------------------------------------------|------------------------------------------------|
F#||-------------------------------------------|------------------------------------------------|
C#||-----------------5555-555555555555---7--8--|--9999-12121212-12121212-4444-555555555555-444--|
G#||--2222-5555-5555-2222-333333333333---5--6--|--7777-9-9-9-9--10101010-2222-333333333333-222--|
D#||--0000-2222-3333---------------------------|------------------------------------------------|


Guitar 2:
D#||-------|
A#||-------|
F#||-------|
C#||-------|
G#||--444--|
D#||--222--|



Breakdown
Guitar 1:
D#||------------------------------------|----------------------------------|
A#||------------------------------------|----------------------------------|
F#||------------------------------------|----------------------------------|
C#||-------12---9--10-------------------|-------12---9--10-----------------|
G#||-------14---10-12---9----10---9-9---|-------14---10-12------10----10~--|
D#||--000---------------10---12---1111--|--000--------------000-12-00-12~--|


D#||------------------------------------|-----------------------------------|
A#||------------------------------------|-----------------------------------|
F#||------------------------------------|-----------------------------------|
C#||----------9-------------------------|-------12---9--10------------------|
G#||----------10--------9----10---9-9---|-------14---10-12--------10-10-10--|
D#||--000---------------10---12---1010--|--000--------------00000-12-12-12--|


Guitar 2:
D#||------------------------------------|----------------------------------|
A#||------------------------------------|----------------------------------|
F#||------------------------------------|----------------------------------|
C#||--222-------------------------------|--222-----------------------------|
G#||--222-------------------------------|--222------------------7----7~----|
D#||--000-------------------------------|--000--------------000---00-------|


D#||------------------------------------|-----------------------------------|
A#||------------------------------------|-----------------------------------|
F#||------------------------------------|-----------------------------------|
C#||--222-----5-------------------------|--222--------------------5--5--5---|
G#||--222-----7-------------------------|--222--------------------7--7--7---|
D#||--000-------------------------------|--000--------------00000-----------|



Outro
Guitar 1:
D#||------------------------------------------------------------------------------------------|
A#||----------------------------------------------------'7------------------------------------|
F#||--------'5~---------------'5--------------------------------------------------------------|
C#||--333---------------333-----------3-3-----3---333-------------------12---9--10------------|
G#||--333---------------333-----------------------333---------7\--------14---10-12--10-10-10--|
D#||--111---------------111-------1-1-----1-1-----111--------------000--------------12-12-12--|


Guitar 2:
D#||----------------------------------------------------'3---------------------------------|
A#||---------------------------------------------------------------------------------------|
F#||--------'2~---------------'2-----------------------------------------------------------|
C#||--333---------------333-----------3-3-----3---333-------------------------------2-2-2--|
G#||--333---------------333-----------------------333---------7\--------------------2-2-2--|
D#||--111---------------111-------1-1-----1-1-----111--------------000--------------0-0-0--|






____________________________________________________________________________________________________

                                    T06.   HIDE YOUR SECRETS
____________________________________________________________________________________________________





Tuning: Drop C# (C# G# C# F# A# D#)



Intro
Guitar 1:
D#||---------------------------------------------------------|
A#||---------------------------------------------------------|
F#||------5-----5-----5-----5--9------9-------7------7-------|
C#||----5-----5-----5-----5------10-----10------9------9-----| x4
G#||--8-----8-----7-----7-----------0------0------10-----10--|
C#||---------------------------------------------------------|


Guitar 2:
D#||--13~---------------------------15---13---12--|--13~---------------------------17---15---13--|
A#||---------------13~-----------13---------------|---------------13~-----------13---------------|
F#||--------------------------14------------------|--------------------------14------------------|
C#||----------------------------------------------|----------------------------------------------|
G#||----------------------------------------------|----------------------------------------------|
C#||----------------------------------------------|----------------------------------------------|


D#||--15~---13-12-------------------15---13---12--|
A#||---------------13~-----------13---------------|
F#||--------------------------14------------------|
C#||----------------------------------------------|
G#||----------------------------------------------|
C#||----------------------------------------------|



Guitar 1:
D#||------------------------------------------------------|
A#||------------------------------------------------------|
F#||--121212121212-101010101010-9-9-9-9-9-9-9-9-9-9-9-9---|
C#||--101010101010-101010101010-101010101010101010101010--|
G#||--8-8-8-8-8-8--8-8-8-8-8-8--8-8-8-8-8-8-8-8-8-8-8-8---|
C#||------------------------------------------------------|


Guitar 2:
D#||--13~--|
A#||-------|
F#||-------|
C#||-------|
G#||-------|
C#||-------|


Guuitar 1:
D#||-------------------------------------------------------------|
A#||-------------------------------------------------------------|
F#||--12---12---12---10---10---10---9----9----9----9----9----9---|
C#||--10---10---10---10---10---10---10---10---10---10---10---10--|
G#||--8----8----8----8----8----8----8----8----8----8----8----8---|
C#||-------------------------------------------------------------|


Guitar 2:
D#||-------------------------------------------------------------|
A#||-------------------------------------------------------------|
F#||-------------------------------------------------------------|
C#||--3----3----3----3----3----3----3----3----3----3----3----3---|
G#||--3----3----3----3----3----3----3----3----3----3----3----3---|
C#||--3----3----3----3----3----3----3----3----3----3----3----3---|



Verse
Guitar 1/2:
D#||----------------------------------------------|------------------------|
A#||----------------------------------------------|------------------------|
F#||-------------------------5--55--55--55--5555--|------------------------|
C#||--1010109---5--55--5555--5--55--55--55--5555--|--10-109-9-5--55--5555--|
G#||--7-7-7-7---3--33--3333--3--33--32--22--2222--|--7--7-7-7-3--33--3333--|
C#||--7-7-7-7---3--33--3333-----------------------|--7--7-7-7-3--33--3333--|


Guitar 1:
D#||-------------------------|
A#||-------------------------|
F#||--4--45--54--44---4444---|
C#||-------------------------|
G#||-------------------------|
C#||-------------------------|


Guitar 2:
D#||-------------------------|
A#||-------------------------|
F#||-------------------------|
C#||--5--55--55--55--55--55--|
G#||--5--55--55--55--55--55--|
C#||--5--55--55--55--55--55--|


Guitar 1/2:
D#||----------------------------------------------|-------------------------|
A#||----------------------------------------------|-------------------------|
F#||-------------------------5--55--55--55--5555--|-------------------------|
C#||--1010109--x5--55--5555--5--55--55--55--5555--|--1010109--x5--55--5555--|
G#||--7-7-7-7--x3--33--3333--3--33--32--22--2222--|--7-7-7-7--x3--33--3333--|
C#||--7-7-7-7--x3--33--3333-----------------------|--7-7-7-7--x3--33--3333--|


Guitar 1:
D#||-------------------------|
A#||-------------------------|
F#||--4--54--7---77---7777---|
C#||-------------------------|
G#||-------------------------|
C#||-------------------------|


Guitar 2:
D#||-------------------------|
A#||-------------------------|
F#||-------------------------|
C#||--5--55--55--55--555555--|
G#||--5--55--55--55--555555--|
C#||--5--55--55--55--555555--|



Chorus
Guitar 1:
D#||--151515----------------------151515-----------------------|
A#||---------131313-121212-131313--------131313-121212---------|
F#||---------------------------------------------------121212--|
C#||-----------------------------------------------------------|
G#||-----------------------------------------------------------|
C#||-----------------------------------------------------------|


D#||--151515--------------------------------------------------|
A#||---------131313-121212-131313-121212-131313-151515151515--|
F#||----------------------------------------------------------|
C#||----------------------------------------------------------|
G#||----------------------------------------------------------|
C#||----------------------------------------------------------|


D#||--151515----------------------151515-----------------------|
A#||---------131313-121212-131313--------131313-121212---------|
F#||---------------------------------------------------121212--|
C#||-----------------------------------------------------------|
G#||-----------------------------------------------------------|
C#||-----------------------------------------------------------|


D#||---------------------------------------------------|
A#||--12-12121212-13-13131313-15-15151515-15-15151515--|
F#||---------------------------------------------------|
C#||---------------------------------------------------|
G#||---------------------------------------------------|
C#||---------------------------------------------------|


Guitar 2:
D#||----------------------------------------------------------------|
A#||----------------------------------------------------------------|
F#||----------------------------------------------------------------|
C#||--3-33-33-3333-2-22-22-2222-10-1010-1010-10101010-5-55-55-5555--|
G#||--3-33-33-3333-3-33-33-3333-7--7-7--7-7--7-7-7-7--5-55-55-5555--|
C#||--3-33-33-3333-2-22-22-2222-7--7-7--7-7--7-7-7-7--5-55-55-5555--|


D#||-------------------------------------------------------|
A#||-------------------------------------------------------|
F#||-------------------------------------------------------|
C#||--3-33-33-3333-2-22-22-2222-5-55-55-5555-5-55-55-5555--|
G#||--3-33-33-3333-3-33-33-3333-5-55-55-5555-5-55-55-5555--|
C#||--3-33-33-3333-2-22-22-2222-5-55-55-5555-5-55-55-5555--|




Guitar 1:
D#||------------------------------------|
A#||------------------------------------|
F#||-----------555555-----------555555--|
C#||--3--3--3----------2--2--2----------|
G#||--3--3--3----------3--3--3----------|
C#||--3--3--3----------2--2--2----------|


Guitar 2:
D#||------------------------------------|
A#||------------------------------------|
F#||------------------------------------|
C#||--3--3--3----------2--2--2----------|
G#||--3--3--3----------3--3--3----------|
C#||--3--3--3----------2--2--2----------|


Guitar 1:
D#||--151515----------------------151515-----------------------|
A#||---------131313-121212-131313--------131313-121212---------|
F#||---------------------------------------------------121212--|
C#||-----------------------------------------------------------|
G#||-----------------------------------------------------------|
C#||-----------------------------------------------------------|


Guitar 2:
D#||--------------------------------------|
A#||--------------------------------------|
F#||--------------------------------------|
C#||--10-1010-1010-10101010-9-99-99-9999--|
G#||--7--7-7--7-7--7-7-7-7--5-55-55-5555--|
C#||--7--7-7--7-7--7-7-7-7--5-55-55-5555--|


Guitar 1:
D#||------------------------------------|
A#||------------------------------------|
F#||-----------555555-----------555555--|
C#||--3--3--3----------2--2--2----------|
G#||--3--3--3----------3--3--3----------|
C#||--3--3--3----------2--2--2----------|


Guitar 2:
D#||------------------------------------|
A#||------------------------------------|
F#||------------------------------------|
C#||--3--3--3----------2--2--2----------|
G#||--3--3--3----------3--3--3----------|
C#||--3--3--3----------2--2--2----------|


Guitar 1:
D#||--151515----------------------------------------------|
A#||---------131313-121212-131313-15--15--15--15--15--15--|
F#||------------------------------------------------------|
C#||------------------------------------------------------|
G#||------------------------------------------------------|
C#||------------------------------------------------------|


Guitar 2:
D#||---------------------------------|
A#||---------------------------------|
F#||---------------------------------|
C#||--5-55-55-5555-5--5--5--5--5--5--|
G#||--5-55-55-5555-5--5--5--5--5--5--|
C#||--5-55-55-5555-5--5--5--5--5--5--|



Verse
Guitar 1:
D#||--------|
A#||--------|
F#||--------|
C#||--7777--|
G#||--7777--|
C#||--7777--|


Guitar 1/2:
D#||------------------------------------|------------------------|
A#||------------------------------------|------------------------|
F#||---------------5--55--55--55--5555--|------------------------|
C#||--5--55--5555--5--55--55--55--5555--|--10-109-9-5--55--5555--|
G#||--3--33--3333--3--33--32--22--2222--|--7--7-7-7-3--33--3333--|
C#||--3--33--3333-----------------------|--7--7-7-7-3--33--3333--|

Guitar 1:
D#||-------------------------|
A#||-------------------------|
F#||--4--45--54--44---4444---|
C#||-------------------------|
G#||-------------------------|
C#||-------------------------|


Guitar 2:
D#||-------------------------|
A#||-------------------------|
F#||-------------------------|
C#||--5--55--55--55--55--55--|
G#||--5--55--55--55--55--55--|
C#||--5--55--55--55--55--55--|


Guitar 1/2:
D#||----------------------------------------------|-------------------------|
A#||----------------------------------------------|-------------------------|
F#||-------------------------5--55--55--55--5555--|-------------------------|
C#||--1010109--x5--55--5555--5--55--55--55--5555--|--1010109--x5--55--5555--|
G#||--7-7-7-7--x3--33--3333--3--33--32--22--2222--|--7-7-7-7--x3--33--3333--|
C#||--7-7-7-7--x3--33--3333-----------------------|--7-7-7-7--x3--33--3333--|


Guitar 1:
D#||-------------------------|
A#||-------------------------|
F#||--4--54--7---77---7777---|
C#||-------------------------|
G#||-------------------------|
C#||-------------------------|


Guitar 2:
D#||-------------------------|
A#||-------------------------|
F#||-------------------------|
C#||--5--55--55--55--555555--|
G#||--5--55--55--55--555555--|
C#||--5--55--55--55--555555--|



Chorus
Guitar 1:
D#||--151515----------------------151515-----------------------|
A#||---------131313-121212-131313--------131313-121212---------|
F#||---------------------------------------------------121212--|
C#||-----------------------------------------------------------|
G#||-----------------------------------------------------------|
C#||-----------------------------------------------------------|


D#||--151515--------------------------------------------------|
A#||---------131313-121212-131313-121212-131313-151515151515--|
F#||----------------------------------------------------------|
C#||----------------------------------------------------------|
G#||----------------------------------------------------------|
C#||----------------------------------------------------------|


D#||--151515----------------------151515-----------------------|
A#||---------131313-121212-131313--------131313-121212---------|
F#||---------------------------------------------------121212--|
C#||-----------------------------------------------------------|
G#||-----------------------------------------------------------|
C#||-----------------------------------------------------------|


D#||---------------------------------------------------|
A#||--12-12121212-13-13131313-15-15151515-15-15151515--|
F#||---------------------------------------------------|
C#||---------------------------------------------------|
G#||---------------------------------------------------|
C#||---------------------------------------------------|


Guitar 2:
D#||-------------------------------------------------------|
A#||-------------------------------------------------------|
F#||-------------------------------------------------------|
C#||--3-33-33-3333-2-22-22-2222-7-77-77-7777-5-55-55-5555--|
G#||--3-33-33-3333-3-33-33-3333-7-77-77-7777-5-55-55-5555--|
C#||--3-33-33-3333-2-22-22-2222-7-77-77-7777-5-55-55-5555--|


D#||-------------------------------------------------------|
A#||-------------------------------------------------------|
F#||-------------------------------------------------------|
C#||--3-33-33-3333-2-22-22-2222-5-55-55-5555-5-55-55-5555--|
G#||--3-33-33-3333-3-33-33-3333-5-55-55-5555-5-55-55-5555--|
C#||--3-33-33-3333-2-22-22-2222-5-55-55-5555-5-55-55-5555--|




Guitar 1/2:
D#||------------------------------------|
A#||------------------------------------|
F#||-----------555555-----------555555--|
C#||--3--3--3----------2--2--2----------|
G#||--3--3--3----------3--3--3----------|
C#||--3--3--3----------2--2--2----------|


Guitar 2:
D#||------------------------------------|
A#||------------------------------------|
F#||------------------------------------|
C#||--3--3--3----------2--2--2----------|
G#||--3--3--3----------3--3--3----------|
C#||--3--3--3----------2--2--2----------|


Guitar 1:
D#||--151515----------------------151515-----------------------|
A#||---------131313-121212-131313--------131313-121212---------|
F#||---------------------------------------------------121212--|
C#||-----------------------------------------------------------|
G#||-----------------------------------------------------------|
C#||-----------------------------------------------------------|


Guitar 2:
D#||--------------------------------------|
A#||--------------------------------------|
F#||--------------------------------------|
C#||--10-1010-1010-10101010-9-99-99-9999--|
G#||--7--7-7--7-7--7-7-7-7--5-55-55-5555--|
C#||--7--7-7--7-7--7-7-7-7--5-55-55-5555--|


Guitar 1/2:
D#||------------------------------------|
A#||------------------------------------|
F#||-----------555555-----------555555--|
C#||--3--3--3----------2--2--2----------|
G#||--3--3--3----------3--3--3----------|
C#||--3--3--3----------2--2--2----------|


Guitar 1:
D#||--151515------------------------------------------------|
A#||---------131313-121212-131313-151515151515151515151515--|
F#||--------------------------------------------------------|
C#||--------------------------------------------------------|
G#||--------------------------------------------------------|
C#||--------------------------------------------------------|


Guitar 2:
D#||------------------------------|
A#||------------------------------|
F#||------------------------------|
C#||--5-55-55-5555-5-55-55--5555--|
G#||--5-55-55-5555-5-55-55--5555--|
C#||--5-55-55-5555-5-55-55--5555--|



Bridge
Guitar 1:
D#||--------------------------------------12-12-12-12-12-12-12-12-12-12----12--|
A#||--13-13-13-13-13-13-13-13-13-13-12-13-------------------------------15-----|
F#||---------------------------------------------------------------------------|
C#||---------------------------------------------------------------------------|
G#||---------------------------------------------------------------------------|
C#||---------------------------------------------------------------------------|


D#||----------------------------------------------------------------------------------|
A#||--12-12-12-12-12-12-12-12-12-12-12-12-------------------1212121212~--1212121212~--|
F#||--------------------------------------14-14-14-14-14-14---------------------------|
C#||----------------------------------------------------------------------------------|
G#||----------------------------------------------------------------------------------|
C#||----------------------------------------------------------------------------------|


D#||--------------------------------------12-12-12-12-12-12-12-12-12-12----12--|
A#||--13-13-13-13-13-13-13-13-13-13-12-13-------------------------------15-----|
F#||---------------------------------------------------------------------------|
C#||---------------------------------------------------------------------------|
G#||---------------------------------------------------------------------------|
C#||---------------------------------------------------------------------------|


D#||--------------------------------------------------------|
A#||--12-12-12-12-12-12-12-12-12-12-12-12-------------------|
F#||--------------------------------------14~----------12~--|
C#||--------------------------------------------------------|
G#||--------------------------------------------------------|
C#||--------------------------------------------------------|


Guitar 2 (Dub):
D#||--------------------------------------12-12-12-12-12-12-12-12-12-12-13-15--|
A#||--13-13-13-13-13-13-13-13-13-13-12-13--------------------------------------|
F#||---------------------------------------------------------------------------|
C#||---------------------------------------------------------------------------|
G#||---------------------------------------------------------------------------|
C#||---------------------------------------------------------------------------|


D#||----------------------------------------------------------------------------------|
A#||--12-12-12-12-12-12-12-12-12-12-12-12-------------------1212121212~--1212121212~--|
F#||--------------------------------------14-14-14-14-14-14---------------------------|
C#||----------------------------------------------------------------------------------|
G#||----------------------------------------------------------------------------------|
C#||----------------------------------------------------------------------------------|


D#||-----------------------------------12-15-15-15-13-13-13-12-12-12-12-13-15--|
A#||--13-13-13-13-13-13-13-13-13-13-15-----------------------------------------|
F#||---------------------------------------------------------------------------|
C#||---------------------------------------------------------------------------|
G#||---------------------------------------------------------------------------|
C#||---------------------------------------------------------------------------|


D#||--------------------------------------------------------|
A#||--12-12-12-12-12-12-12-12-12-12-12-12--------------12~--|
F#||--------------------------------------14~---------------|
C#||--------------------------------------------------------|
G#||--------------------------------------------------------|
C#||--------------------------------------------------------|


Guitar 3:
D#||---------------------------------------------------------------------------|
A#||---------------------------------------------------------------------------|
F#||---------------------------------------------------------------------------|
C#||--10-10-10-10-10-10-10-10-10-10-10-10-10-10-10-10-10-10-10-10-10-10-10-10--|
G#||--10-10-10-10-10-10-10-10-10-10-10-10-8--8--8--8--8--8--8--8--8--8--8--8---|
C#||--10-10-10-10-10-10-10-10-10-10-10-10-8--8--8--8--8--8--8--8--8--8--8--8---|


D#||---------------------------------------------------|
A#||---------------------------------------------------|
F#||--9-9-9-9-9-9-9-9-9-9-9-9--------------------------|
C#||--9-9-9-9-9-9-9-9-9-9-9-9-3-3-3-3-3-3-5-5-5-5-5-5--|
G#||--7-7-7-7-7-7-7-7-7-7-7-7-3-3-3-3-3-3-5-5-5-5-5-5--|
C#||--------------------------3-3-3-3-3-3-5-5-5-5-5-5--|


D#||---------------------------------------------------------------------------|
A#||---------------------------------------------------------------------------|
F#||---------------------------------------------------------------------------|
C#||--10-10-10-10-10-10-10-10-10-10-10-10-10-10-10-10-10-10-10-10-10-10-10-10--|
G#||--10-10-10-10-10-10-10-10-10-10-10-10-8--8--8--8--8--8--8--8--8--8--8--8---|
C#||--10-10-10-10-10-10-10-10-10-10-10-10-8--8--8--8--8--8--8--8--8--8--8--8---|



D#||------------------------------------------|
A#||------------------------------------------|
F#||--9-9-9-9-9-9-9-9-9-9-9-9-----------------|
C#||--9-9-9-9-9-9-9-9-9-9-9-9-3~----------5~--|
G#||--7-7-7-7-7-7-7-7-7-7-7-7-3~----------5~--|
C#||--------------------------3~----------5~--|



Interlude
Guitar 1:
D#||---------------------------------------------------------|
A#||---------------------------------------------------------|
F#||------5-----5-----5-----5--9------9-------7------7-------|
C#||----5-----5-----5-----5------10-----10------9------9-----| x3
G#||--8-----8-----7-----7-----------0------0------10-----10--|
C#||---------------------------------------------------------|


D#||------------------------------------------|
A#||------------------------------------------|
F#||------5-----5-----5-----5--9------9-------|
C#||----5-----5-----5-----5------10-----10----|
G#||--8-----8-----7-----7-----------0------0--|
C#||------------------------------------------|


Guitar 2:
D#||--13~---------------------------15---13---12--|--13~---------------------------17---15---13--|
A#||---------------13~-----------13---------------|---------------13~-----------13---------------|
F#||--------------------------14------------------|--------------------------14------------------|
C#||----------------------------------------------|----------------------------------------------|
G#||----------------------------------------------|----------------------------------------------|
C#||----------------------------------------------|----------------------------------------------|


D#||--15~---13-12-------------------15---13---12--(13~)--|
A#||---------------13~-----------13----------------------|
F#||--------------------------14-------------------------|
C#||-----------------------------------------------------|
G#||-----------------------------------------------------|
C#||-----------------------------------------------------|


D#||---------------------------------------------------|
A#||---------------------------------------------------|
F#||---------------------------------------------------|
C#||--10-10-10-10-10-10-10-10-10-10-10-10---------7-7--|
G#||--8--8--8--8--8--8--7--7--7--7--7--7--7-7-7-7-7-7--|
C#||--------------------------------------7-7-7-7-7-7--|
      .  .  .  .  .  .  .  .  .  .  .  .  . . . .


Guitar 1/2:
D#||------------------|
A#||------------------|
F#||------------------|
C#||--5555----555555--|
G#||--5555----555555--|
C#||--5555----555555--|



Chorus
Guitar 1:
D#||--151515----------------------151515-----------------------|
A#||---------131313-121212-131313--------131313-121212---------|
F#||---------------------------------------------------121212--|
C#||-----------------------------------------------------------|
G#||-----------------------------------------------------------|
C#||-----------------------------------------------------------|


D#||--151515--------------------------------------------------|
A#||---------131313-121212-131313-121212-131313-151515151515--|
F#||----------------------------------------------------------|
C#||----------------------------------------------------------|
G#||----------------------------------------------------------|
C#||----------------------------------------------------------|


D#||--151515----------------------151515-----------------------|
A#||---------131313-121212-131313--------131313-121212---------|
F#||---------------------------------------------------121212--|
C#||-----------------------------------------------------------|
G#||-----------------------------------------------------------|
C#||-----------------------------------------------------------|


D#||---------------------------------------------------|
A#||--12-12121212-13-13131313-15-15151515-15-15151515--|
F#||---------------------------------------------------|
C#||---------------------------------------------------|
G#||---------------------------------------------------|
C#||---------------------------------------------------|


Guitar 2:
D#||-------------------------------------------------------|
A#||-------------------------------------------------------|
F#||-------------------------------------------------------|
C#||--3-33-33-3333-2-22-22-2222-7-77-77-7777-5-55-55-5555--|
G#||--3-33-33-3333-3-33-33-3333-7-77-77-7777-5-55-55-5555--|
C#||--3-33-33-3333-2-22-22-2222-7-77-77-7777-5-55-55-5555--|


D#||-------------------------------------------------------|
A#||-------------------------------------------------------|
F#||-------------------------------------------------------|
C#||--3-33-33-3333-2-22-22-2222-5-55-55-5555-5-55-55-5555--|
G#||--3-33-33-3333-3-33-33-3333-5-55-55-5555-5-55-55-5555--|
C#||--3-33-33-3333-2-22-22-2222-5-55-55-5555-5-55-55-5555--|




Guitar 1/2:
D#||------------------------------------|
A#||------------------------------------|
F#||-----------555555-----------555555--|
C#||--3--3--3----------2--2--2----------|
G#||--3--3--3----------3--3--3----------|
C#||--3--3--3----------2--2--2----------|


Guitar 1:
D#||--151515----------------------151515-----------------------|
A#||---------131313-121212-131313--------131313-121212---------|
F#||---------------------------------------------------121212--|
C#||-----------------------------------------------------------|
G#||-----------------------------------------------------------|
C#||-----------------------------------------------------------|


Guitar 2:
D#||--------------------------------------|
A#||--------------------------------------|
F#||--------------------------------------|
C#||--10-1010-1010-10101010-9-99-99-9999--|
G#||--7--7-7--7-7--7-7-7-7--5-55-55-5555--|
C#||--7--7-7--7-7--7-7-7-7--5-55-55-5555--|


Guitar 1:
D#||------------------------------------|
A#||------------------------------------|
F#||-----------555555-----------555555--|
C#||--3--3--3----------2--2--2----------|
G#||--3--3--3----------3--3--3----------|
C#||--3--3--3----------2--2--2----------|


Guitar 2:
D#||----------------------------333333--|
A#||-----------555555-------------------|
F#||------------------------------------|
C#||--3--3--3----------2--2--2----------|
G#||--3--3--3----------3--3--3----------|
C#||--3--3--3----------2--2--2----------|


Guitar 1:
D#||--151515------------------------------------------------|
A#||---------131313-121212-131313-151515151515151515151515--|
F#||--------------------------------------------------------|
C#||--------------------------------------------------------|
G#||--------------------------------------------------------|
C#||--------------------------------------------------------|


Guitar 2:
D#||------------------------------|
A#||------------------------------|
F#||------------------------------|
C#||--5-55-55-5555-5-55-55--5555--|
G#||--5-55-55-5555-5-55-55--5555--|
C#||--5-55-55-5555-5-55-55--5555--|



Chorus / Outro
Guitar 1:
D#||-----------------------------------|
A#||-----------------------------------|
F#||----------555555-----------555555--|
C#||--333333----------2--2--2----------|
G#||--333333----------3--3--3----------|
C#||--333333----------2--2--2----------|


Guitar 2:
D#||----------------------------------|
A#||---------666666-----------555555--|
F#||----------------------------------|
C#||--33333----------2--2--2----------|
G#||--33333----------3--3--3----------|
C#||--33333----------2--2--2----------|


Guitar 1:
D#||--151515----------------------151515-----------------------|
A#||---------131313-121212-131313--------131313-121212---------|
F#||---------------------------------------------------121212--|
C#||-----------------------------------------------------------|
G#||-----------------------------------------------------------|
C#||-----------------------------------------------------------|


Guitar 2:
D#||--------------------------------------|
A#||--------------------------------------|
F#||--------------------------------------|
C#||--10-1010-1010-10101010-9-99-99-9999--|
G#||--7--7-7--7-7--7-7-7-7--5-55-55-5555--|
C#||--7--7-7--7-7--7-7-7-7--5-55-55-5555--|


Guitar 1:
D#||-----------------------------------|
A#||-----------------------------------|
F#||----------555555-----------555555--|
C#||--333333----------2--2--2----------|
G#||--333333----------3--3--3----------|
C#||--333333----------2--2--2----------|


Guitar 2:
D#||----------------------------333333--|
A#||-----------555555-------------------|
F#||------------------------------------|
C#||--333333----------2--2--2-----------|
G#||--333333----------3--3--3-----------|
C#||--333333----------2--2--2-----------|


Guitar 1:
D#||--151515----------------------------------------------|
A#||---------131313-121212-131313-15--15--15--15--15--15--|
F#||------------------------------------------------------|
C#||------------------------------------------------------|
G#||------------------------------------------------------|
C#||------------------------------------------------------|


Guitar 1/2:
D#||-------------------------------|
A#||-------------------------------|
F#||-------------------------------|
C#||--10~----------9~----------7~--|
G#||--7-~----------5~----------3~--|
C#||--7-~----------5~----------3~--|





____________________________________________________________________________________________________

                                       T07.   ARRIVALS
____________________________________________________________________________________________________





Tuning: Half-Step Down (D# G# C# F# A# D#)



Guitar 1:
D#||------------------------------------------------------------------------------|
A#||--------------------------5~--------------------------------------------------|
F#||--5~----------4~----------x-----------2~----------5~----------4~----------2~--|
C#||--x-----------x-----------x-----------x-----------x-----------x-----------x---| x3
G#||--x-----------x-----------3~----------x-----------x-----------x-----------x---|
D#||--5~----------3~----------------------1~----------5~----------3~----------1~--|


D#||------------------------------------------|
A#||--6~----------6~----------5~----------5~--|
F#||--x-----------x-----------x-----------x---|
C#||--x-----------x-----------x-----------x---|
G#||--5~----------5~----------3~----------3~--|
D#||------------------------------------------|


D#||------------------------------------------|
A#||--10~---------10~---------9~----------9~--|
F#||--x-----------x-----------x-----------x---|
C#||--x-----------x-----------x-----------x---|
G#||--8~----------8~----------8~----------8~--|
D#||------------------------------------------|


D#||------|
A#||--5~--|
F#||--x---|
C#||--x---|
G#||--3~--|
D#||------|





____________________________________________________________________________________________________

                                  T08.   IN A PLACE OF SOLACE
____________________________________________________________________________________________________





Tuning: Drop C# (C# G# C# F# A# D#)



Intro
Guitar 1:
D#||---------------------------------------------------|
A#||---------------------------------------------------|
F#||---------------------------------------------------|
C#||--0~--------------------3~--------------0~-----3~--|
G#||--0~--------------------3~--------------0~-----3~--|
C#||--0~--------------------3~--------------0~-----3~--|


Main Riff
Guitar 1:
D#||------0~---0~---0~-------0~---0~---0~---|
A#||------6p5--6p5--6p5------6h8--6h8--5~---|
F#||----------------------------------------|
C#||----------------------------------------| x12
G#||----------------------------------------|
C#||----------------------------------------|


Guitar 2:
D#||----------------------------------------|
A#||----------------------------------------|
F#||----------------------------------------|
C#||--0~-----------------3~-----------------| x12
G#||--0~-----------------3~-----------------|
C#||--0~-----------------3~-----------------|


Guitar 3 (Listen for when to come in):
D#||------------------|-----------|
A#||------------------|-----------|
F#||------------------|-----------|
C#||--'7~~~~~~~(b~r)--|--7~----b--|
G#||------------------|-----------|
C#||------------------|-----------|



Guitar 1:
D#||-------------------------------|-------------------------------------------|
A#||-------------------------------|-------------------------------------------|
F#||-------------------------------|-------------------------------------------|
C#||--8888888888-12--777777777777--|--8888888888-12--101010101010111111111111--|
G#||--xxxxxxxxxx-x---xxxxxxxxxxxx--|--xxxxxxxxxx-x---x-x-x-x-x-x-x-x-x-x-x-x---|
C#||--5555555555-10--333333333333--|--5555555555-10--7-7-7-7-7-7-7-7-7-7-7-7---|


Guitar 1/2:
D#||-------------------------------|-------------------------------------------|
A#||-------------------------------|-------------------------------------------|
F#||-------------------------------|-------------------------------------------|
C#||--8888888888-12--777777777777--|--8888888888-12--101010101010111111111111--| x2
G#||--xxxxxxxxxx-x---xxxxxxxxxxxx--|--xxxxxxxxxx-x---x-x-x-x-x-x-x-x-x-x-x-x---|
C#||--5555555555-10--333333333333--|--5555555555-10--7-7-7-7-7-7-7-7-7-7-7-7---|



D#||-------------------------------------------------------------------|
A#||-------------------------------------------------------------------|
F#||-------------------------------------------------------------------|
C#||-------------------------------------------------------------------| x2
G#||-------------------------------------------------------------------|
C#||--0-0-0-0-0-0-0-0-0-0-0-0-0-0-0-0-0-0-0-0-0-0-0-0-0-0-0-0-0-0-0-0--|



Collision
Guitar 1:
D#||------0~---0~---0~-------0~---0~---0~---|
A#||------6p5--6p5--6p5------6h8--6h8--5~---|
F#||----------------------------------------|
C#||----------------------------------------| x4
G#||----------------------------------------|
C#||----------------------------------------|


Guitar 2:
D#||----------------------------------------|
A#||----------------------------------------|
F#||----------------------------------------|
C#||--0~-----------------3~-----------------| x4
G#||--0~-----------------3~-----------------|
C#||--0~-----------------3~-----------------|


Guitar 3 (Listen for when to come in):
D#||------------------|-----------|
A#||------------------|-----------|
F#||------------------|-----------|
C#||--'7~~~~~~~(b~r)--|--7~----b--|
G#||------------------|-----------|
C#||------------------|-----------|


Guitar 4:
D#||-------------------------------------------------------------------|
A#||-------------------------------------------------------------------|
F#||-------------------------------------------------------------------|
C#||-------------------------------------------------------------------| x4
G#||-------------------------------------------------------------------|
C#||--0-0-0-0-0-0-0-0-0-0-0-0-0-0-0-0-3-3-3-3-3-3-3-3-3-3-3-3-3-3-3-3--|



Outro
Guitar 1/2:
D#||----------------------------------------------|-----------------------------------------('7)--|
A#||--6-6----6-6----6-6--------6-6----6-6---------|--6-6----6-6----6-6--------6-6----6-6\---------|
F#||--7-7-77-7-7-77-7-7-777777-7-7-77-7-7-777777--|--7-7-77-7-7-77-7-7-777777-7-7-77-7-7\---------|
C#||----------------------------------------------|-----------------------------------------------|
G#||----------------------------------------------|-----------------------------------------------|
C#||----------------------------------------------|-----------------------------------------------|
          ..     ..     ......     ..     ......         ..     ..     ......     ..





____________________________________________________________________________________________________

                                    T09.   IN SILENT SEAS WE DROWN
____________________________________________________________________________________________________





Tuning: Drop C# (C# G C# F# A# D#)


Intro
Guitar 1:
D#||-------------------------------------|
A#||-----------------4b5~----------------|
F#||-----------------4b5~----------------|
C#||--3-0-2---3-0-2-------3-0-2---3-0-2--|
G#||--3-0-2---3-0-2-------3-0-2---3-0-2--|
C#||--3-0-2---3-0-2-------3-0-2---3-0-2--|


Guitar 1/2:
D#||---------|
A#||---------|
F#||---------|
C#||--x-x-x--|
G#||--x-x-x--|
C#||--x-x-x--|



Riff
Guitar 1/2:
D#||--------------------------------------------|-------------------------------------------|
A#||-----------------4b5~-----------------------|-----------------4b5~----------------------|
F#||-----------------4b5~-----------------------|-----------------4b5~----------------------|
C#||--3-0-2---3-0-2-------3-0-2---3-0-2--x-x-x--|--3-0-2---3-0-2-------3-0-2---x-x---x---x--|
G#||--3-0-2---3-0-2-------3-0-2---3-0-2--x-x-x--|--3-0-2---3-0-2-------3-0-2---x-x---x---x--|
C#||--3-0-2---3-0-2-------3-0-2---3-0-2--x-x-x--|--3-0-2---3-0-2-------3-0-2---x-x---x---x--|



Verse
Guitar 1:
D#||------------------------------------------------------------------|
A#||------------------------------------------------------------------|
F#||-------7---/10\7-------7---/10\7-------7---/10\7-------7---/10\7--|
C#||-------x---/x-\x-------x---/x-\x-------x---/x-\x-------x---/x-\x--|
G#||--000--5---/8-\5--000--5---/8-\5--000--5---/8-\5--000--5---/8-\5--|
C#||--000-------------000-------------000-------------000-------------|


Guitar 2:
D#||------------------------------------------------------------------|
A#||------------------------------------------------------------------|
F#||------------------------------------------------------------------|
C#||------------------------------------------------------------------|
G#||--0000------------0000------------0000------------0000------------|
C#||--0000------------0000------------0000------------0000------------|



Guitar 1:
D#||------------------------------------------------------------------------|
A#||------------------------------------------------------------------------|
F#||--14141414---1414---10101010---1010---12121212---1212---666--9~-b10r9~--|
C#||--x-x-x-x----x-x----x-x-x-x----x-x----x-x-x-x----x-x----xxx-------------|
G#||--12121212---1212---8-8-8-8----8-8----10101010---1010---444-------------|
C#||------------------------------------------------------------------------|


Guitar 2:
D#||-------------------------------------------------|
A#||-------------------------------------------------|
F#||-------------------------------------------------|
C#||--------------------------5555---55---7777---77--|
G#||--3333---33---3333---33---xxxx---xx---4444---44--|
C#||--3333---33---3333---33---2222---22--------------|



Guitar 1:
D#||-------------------------------------------------------------------|
A#||-------------------------------------------------------------------|
F#||-------7---/10\7-------7---/10\7-------7---/10\7-------7---/10\7---|
C#||-------x---/x-\x-------x---/x-\x-------x---/x-\x-------x---/x-\x---|
G#||--000--5---/8-\5--000--5---/8-\5--000--5---/8-\5--000--5---/8-\5---|
C#||--000-------------000-------------000-------------000--------------|


Guitar 2:
D#||-------------------------------------------------------------------|
A#||-------------------------------------------------------------------|
F#||-------10--/14\10------10--/14\10------10--/14\10------10--/14\10--|
C#||-------x---/x-\x-------x---/x-\x-------x---/x-\x-------x---/x-\x---|
G#||--000--8---/12\8--000--8---/12\8--000--8---/12\8--000--8---/12\8---|
C#||--000-------------000-------------000-------------000--------------|



Guitar 1:
D#||----------------------------------------------------------------------------|
A#||----------------------------------------------------------------------------|
F#||--14141414~--1414~--15151515~--1515~--12121212~--1212~--101010--9--h10p9p7--|
C#||--x-x-x-x----x-x----x-x-x-x----x-x----x-x-x-x----x-x----x-x-x---------------|
G#||--12121212~--1212~--13131313~--1313~--10101010~--1010~--8-8-8---------------|
C#||----------------------------------------------------------------------------|


Guitar 2:
D#||--------------------------------------------------|
A#||--------------------------------------------------|
F#||--------------------------------------------------|
C#||--------------------------5555~--55~--7777~--77~--|
G#||--3333~--33~--3333~--33~--xxxx---xx---4444~--44~--|
C#||--3333~--33~--3333~--33~--2222~--22~--------------|



Chorus
Guitar 1:
D#||------------------------------------------------------|
A#||------------------------------------------------------|
F#||--77--7--799--9--910101010--55--5--599--9--910101010--|
C#||--xx--x--xxx--x--xx-x-x-x---xx--x--xxx--x--xx-x-x-x---|
G#||--55--5--577--7--78-8-8-8---33--3--377--7--78-8-8-8---|
C#||------------------------------------------------------|


D#||----------------------------------------------------------------------|
A#||----------------------------------------------------------------------|
F#||--1010--10--101212--12--1214141414--1010--10--101212--12--1214141414--|
C#||--x-x---x---x-x-x---x---x-x-x-x-x---x-x---x---x-x-x---x---x-x-x-x-x---|
G#||--8-8---8---8-1010--10--1012121212--8-8---8---8-1010--10--1012121212--|
C#||----------------------------------------------------------------------|


D#||------------------------------------------------------|
A#||------------------------------------------------------|
F#||--77--7--799--9--910101010--55--5--599--9--910101010--|
C#||--xx--x--xxx--x--xx-x-x-x---xx--x--xxx--x--xx-x-x-x---|
G#||--55--5--577--7--78-8-8-8---33--3--377--7--78-8-8-8---|
C#||------------------------------------------------------|


D#||----------------------------------------------------------------------|
A#||----------------------------------------------------------------------|
F#||--1010--10--101212--12--1214141414--1414--14--141414--14--1414141414--|
C#||--x-x---x---x-x-x---x---x-x-x-x-x---x-x---x---x-x-x---x---x-x-x-x-x---|
G#||--8-8---8---8-1010--10--1012121212--1212--12--121212--12--1212121212--|
C#||----------------------------------------------------------------------|


Guitar 2:
D#||------------------------------------------------------------------------------------------|
A#||------------------------------------------------------------------------------------------|
F#||------------------------------------------------------------------------------------------|
C#||--88--8--888--8--88888--77--7--777--7--77777--00--0--000--0--00000--33--3--333--3--33333--|
G#||--88--8--888--8--88888--77--7--777--7--77777--00--0--000--0--00000--33--3--333--3--33333--|
C#||--88--8--888--8--88888--77--7--777--7--77777--00--0--000--0--00000--33--3--333--3--33333--|


D#||------------------------------------------------------------------------------------------|
A#||------------------------------------------------------------------------------------------|
F#||------------------------------------------------------------------------------------------|
C#||--88--8--888--8--88888--77--7--777--7--77777--00--0--000--0--00000--00--0--000--0--00000--|
G#||--88--8--888--8--88888--77--7--777--7--77777--00--0--000--0--00000--00--0--000--0--00000--|
C#||--88--8--888--8--88888--77--7--777--7--77777--00--0--000--0--00000--00--0--000--0--00000--|



Riff
Guitar 1/2:
D#||---------------------------------------------|
A#||-----------------4b5~------------4~------b5--|
F#||-----------------4b5~------------4~------b5--|
C#||--3-0-2---3-0-2-------3-0-2---x--------------|
G#||--3-0-2---3-0-2-------3-0-2---x--------------|
C#||--3-0-2---3-0-2-------3-0-2---x--------------|



Verse
Guitar 1:
D#||------------------------------------------------------------------|
A#||------------------------------------------------------------------|
F#||-------7---/10\7-------7---/10\7-------7---/10\7-------7---/10\7--|
C#||-------x---/x-\x-------x---/x-\x-------x---/x-\x-------x---/x-\x--|
G#||--000--5---/8-\5--000--5---/8-\5--000--5---/8-\5--000--5---/8-\5--|
C#||--000-------------000-------------000-------------000-------------|


Guitar 2:
D#||------------------------------------------------------------------|
A#||------------------------------------------------------------------|
F#||------------------------------------------------------------------|
C#||------------------------------------------------------------------|
G#||--0000-------------0000-------------0000-------------0000---------|
C#||--0000-------------0000-------------0000-------------0000---------|



Guitar 1:
D#||------------------------------------------------------------------------|
A#||------------------------------------------------------------------------|
F#||--14141414---1414---10101010---1010---12121212---1212---666--9~-b10r9~--|
C#||--x-x-x-x----x-x----x-x-x-x----x-x----x-x-x-x----x-x----xxx-------------|
G#||--12121212---1212---8-8-8-8----8-8----10101010---1010---444-------------|
C#||------------------------------------------------------------------------|


Guitar 2:
D#||-------------------------------------------------|
A#||-------------------------------------------------|
F#||-------------------------------------------------|
C#||--------------------------5555---55---7777---77--|
G#||--3333---33---3333---33---xxxx---xx---4444---44--|
C#||--3333---33---3333---33---2222---22--------------|



Guitar 1:
D#||-------------------------------------------------------------------|
A#||-------------------------------------------------------------------|
F#||-------7---/10\7-------7---/10\7-------7---/10\7-------7---/10\7---|
C#||-------x---/x-\x-------x---/x-\x-------x---/x-\x-------x---/x-\x---|
G#||--000--5---/8-\5--000--5---/8-\5--000--5---/8-\5--000--5---/8-\5---|
C#||--000-------------000-------------000-------------000--------------|


Guitar 2:
D#||-------------------------------------------------------------------|
A#||-------------------------------------------------------------------|
F#||-------10--/14\10------10--/14\10------10--/14\10------10--/14\10--|
C#||-------x---/x-\x-------x---/x-\x-------x---/x-\x-------x---/x-\x---|
G#||--000--8---/12\8--000--8---/12\8--000--8---/12\8--000--8---/12\8---|
C#||--000-------------000-------------000-------------000--------------|



Guitar 1:
D#||----------------------------------------------------------------------------|
A#||----------------------------------------------------------------------------|
F#||--14141414~--1414~--15151515~--1515~--12121212~--1212~--101010--9--h10p9p7--|
C#||--x-x-x-x----x-x----x-x-x-x----x-x----x-x-x-x----x-x----x-x-x---------------|
G#||--12121212~--1212~--13131313~--1313~--10101010~--1010~--8-8-8---------------|
C#||----------------------------------------------------------------------------|


Guitar 2:
D#||--------------------------------------------------|
A#||--------------------------------------------------|
F#||--------------------------------------------------|
C#||--------------------------5555~--55~--7777~--77~--|
G#||--3333~--33~--3333~--33~--xxxx---xx---4444~--44~--|
C#||--3333~--33~--3333~--33~--2222~--22~--------------|



Chorus
Guitar 1:
D#||------------------------------------------------------|
A#||------------------------------------------------------|
F#||--77--7--799--9--910101010--55--5--599--9--910101010--|
C#||--xx--x--xxx--x--xx-x-x-x---xx--x--xxx--x--xx-x-x-x---|
G#||--55--5--577--7--78-8-8-8---33--3--377--7--78-8-8-8---|
C#||------------------------------------------------------|


D#||----------------------------------------------------------------------|
A#||----------------------------------------------------------------------|
F#||--1010--10--101212--12--1214141414--1010--10--101212--12--1214141414--|
C#||--x-x---x---x-x-x---x---x-x-x-x-x---x-x---x---x-x-x---x---x-x-x-x-x---| x2
G#||--8-8---8---8-1010--10--1012121212--8-8---8---8-1010--10--1012121212--|
C#||----------------------------------------------------------------------|


Guitar 2:
D#||------------------------------------------------------------------------------------------|
A#||------------------------------------------------------------------------------------------|
F#||------------------------------------------------------------------------------------------|
C#||--88--8--888--8--88888--77--7--777--7--77777--00--0--000--0--00000--33--3--333--3--33333--| x2
G#||--88--8--888--8--88888--77--7--777--7--77777--00--0--000--0--00000--33--3--333--3--33333--|
C#||--88--8--888--8--88888--77--7--777--7--77777--00--0--000--0--00000--33--3--333--3--33333--|



Bridge
Guitar 1:
D#||-----------------------------------------------------------------------|
A#||-----------------------------------------------------------------------|
F#||--7--7--7-77--77-/9--9--9-99--99-\5--5--5-55--55--/10--10--10-9--9--9--|
C#||-----------------------------------------------------------------------|
G#||-----------------------------------------------------------------------|
C#||-----------------------------------------------------------------------|


D#||---------------------------------------------------------------------------------------|
A#||---------------------------------------------------------------------------------------|
F#||--7--7--7-77--77-/9--9--9-99--99-/10--10--10-1010--1010--10--10--10--1010101010101010--|
C#||---------------------------------------------------------------------------------------|
G#||---------------------------------------------------------------------------------------|
C#||---------------------------------------------------------------------------------------|


Guitar 2:
D#||--------------------------------------------------------------------------------------------|
A#||--------------------------------------------------------------------------------------------|
F#||--15--15--15-1515--1515-/17--17--17-1717--1717-\14--14--14-15--14--12-10--10--10-12--14-10--|
C#||--x---x---x--x-x---x-x--/x---x---x--x-x---x-x--\x---x---x--x---x---x--x---x---x--x---x--x---|
G#||--13--13--13-1313--1313-/15--15--15-1515--1515-\12--12--12-13--12--10-8---8---8--10--12-8---|
C#||--------------------------------------------------------------------------------------------|


D#||---------------------------------------------------------------------|
A#||---------------------------------------------------------------------|
F#||--7--7--7-77--77--5--5--5-55--55--7--7--7-77--77--7--7--7--77777777--|
C#||--x--x--x-xx--xx--x--x--x-xx--xx--x--x--x-xx--xx--x--x--x--xxxxxxxx--|
G#||--5--5--5-55--55--3--3--3-33--33--5--5--5-55--55--5--5--5--55555555--|
C#||---------------------------------------------------------------------|



Breakdown
Guitar 1:
D#||-------------------------------------------------|
A#||-------------------------------------------------|
F#||-------------------------------------------------|
C#||--0---0---0---0---0---0---0---0------------------| x4
G#||--0---0---0---0---0---0---0---0-----55---5---55--|
C#||--0---0---0---0---0---0---0---0---0----0---0-----|


Guitar 2:
D#||-------------------------------------------------|
A#||-------------------------------------------------|
F#||-------------------------------------------------|
C#||--0---0---0---0---0---0---0---0------------------|
G#||--0---0---0---0---0---0---0---0-----88---8---88--|
C#||--0---0---0---0---0---0---0---0---0----0---0-----|


D#||------------------------------------------------------|
A#||------------------------------------------------------|
F#||------------------------------------------------------|
C#||--0---0---0---0---0---0---0---0-----------------------| x2
G#||--0---0---0---0---0---0---0---0-----1313---13---1212--|
C#||--0---0---0---0---0---0---0---0---0------0----0-------|



Bridge
Guitar 1:
D#||---------------------|
A#||---------------------|
F#||---------------------|
C#||--0~-----------~'7~--|
G#||--0~-----------------|
C#||--0~-----------------|


Guitar 2:
D#||---------------------|
A#||---------------------|
F#||---------------------|
C#||--0~-----------------|
G#||--0~-----------~'9~--|
C#||--0~-----------------|


Guitar 1:
D#||--------------------------------------------|-------------------------------------|
A#||-----------------4b5~-----------------------|-----------------4b5~----------------|
F#||-----------------4b5~-----------------------|-----------------4b5~----------------|
C#||--3-0-2---3-0-2-------3-0-2---3-0-2--x-x-x--|--3-0-2---3-0-2-------3-0-2---3-0-2--|
G#||--3-0-2---3-0-2-------3-0-2---3-0-2--x-x-x--|--3-0-2---3-0-2-------3-0-2---3-0-2--|
C#||--3-0-2---3-0-2-------3-0-2---3-0-2--x-x-x--|--3-0-2---3-0-2-------3-0-2---3-0-2--|


Guitar 2:
D#||--------------------------------------------|-------------------------------------|
A#||--------------------------------------------|-------------------------------------|
F#||--------------------------------------------|---------------'5~-------------------|
C#||--------------------------------------------|--0----------------------------------|
G#||--('9~)-------------------------------------|--0----------------------------------|
C#||--------------------------------------------|--0----------------------------------|
                                                   .


Guitar 3 (Dub):
D#||--------------------------------------------|-------------------------------------|
A#||--------------------------------------------|-------------------------------------|
F#||--------------------------------------------|---------------'2~---------'3~-------|
C#||--('7~)-------------------------------------|--0----------------------------------|
G#||--------------------------------------------|--0----------------------------------|
C#||--------------------------------------------|--0----------------------------------|
                                                   .



Riff
Guitar 1/2:
D#||--------------------------------------------|-------------------------------------------|
A#||-----------------4b5~-----------------------|-----------------4b5~----------------------|
F#||-----------------4b5~-----------------------|-----------------4b5~----------------------|
C#||--3-0-2---3-0-2-------3-0-2---3-0-2--x-x-x--|--3-0-2---3-0-2-------3-0-2---x-x---x---x--|
G#||--3-0-2---3-0-2-------3-0-2---3-0-2--x-x-x--|--3-0-2---3-0-2-------3-0-2---x-x---x---x--|
C#||--3-0-2---3-0-2-------3-0-2---3-0-2--x-x-x--|--3-0-2---3-0-2-------3-0-2---x-x---x---x--|


D#||-----------------------------------------|-----------------------------------------|
A#||-----------------------------------------|-----------------------------------------|
F#||-----------------------------------------|-----------------------------------------|
C#||--3--0--2-------------3--0--2------------|--3--0--2-------------3--0--2------------|
G#||--3--0--2----5555555--3--0--2------------|--3--0--2----5555555--3--0--2------------|
C#||--3--0--2--0----------3--0--2--xxxxxxxx--|--3--0--2--0----------3--0--2--xxxxxxxx--|



Chorus
Guitar 1:
D#||------------------------------------------------------|
A#||------------------------------------------------------|
F#||--77--7--799--9--910101010--55--5--599--9--910101010--|
C#||--xx--x--xxx--x--xx-x-x-x---xx--x--xxx--x--xx-x-x-x---|
G#||--55--5--577--7--78-8-8-8---33--3--377--7--78-8-8-8---|
C#||------------------------------------------------------|


D#||----------------------------------------------------------------------|
A#||----------------------------------------------------------------------|
F#||--1010--10--101212--12--1214141414--1010--10--101212--12--1214141414--|
C#||--x-x---x---x-x-x---x---x-x-x-x-x---x-x---x---x-x-x---x---x-x-x-x-x---| x2
G#||--8-8---8---8-1010--10--1012121212--8-8---8---8-1010--10--1012121212--|
C#||----------------------------------------------------------------------|


Guitar 2:
D#||------------------------------------------------------------------------------------------|
A#||------------------------------------------------------------------------------------------|
F#||------------------------------------------------------------------------------------------|
C#||--88--8--888--8--88888--77--7--777--7--77777--00--0--000--0--00000--33--3--333--3--33333--| x2
G#||--88--8--888--8--88888--77--7--777--7--77777--00--0--000--0--00000--33--3--333--3--33333--|
C#||--88--8--888--8--88888--77--7--777--7--77777--00--0--000--0--00000--33--3--333--3--33333--|



Bridge
Guitar 1:
D#||-----------------------------------------------------------------------|
A#||-----------------------------------------------------------------------|
F#||--7--7--7-77--77-/9--9--9-99--99-\5--5--5-55--55--/10--10--10-9--9--9--|
C#||-----------------------------------------------------------------------|
G#||-----------------------------------------------------------------------|
C#||-----------------------------------------------------------------------|


D#||----------------------------------|
A#||----------------------------------|
F#||--7--7--7-77--77-/6--6--6-66--66--|
C#||----------------------------------|
G#||----------------------------------|
C#||----------------------------------|


Guitar 2:
D#||--------------------------------------------------------------------------------------------|
A#||--------------------------------------------------------------------------------------------|
F#||--15--15--15-1515--1515-/17--17--17-1717--1717-\14--14--14-15--14--12-10--10--10-12--14-10--|
C#||--x---x---x--x-x---x-x--/x---x---x--x-x---x-x--\x---x---x--x---x---x--x---x---x--x---x--x---|
G#||--13--13--13-1313--1313-/15--15--15-1515--1515-\12--12--12-13--12--10-8---8---8--10--12-8---|
C#||--------------------------------------------------------------------------------------------|


D#||----------------------------------|
A#||----------------------------------|
F#||--7--7--7-77--77-\6--6--6-66--66--|
C#||--x--x--x-xx--xx-\x--x--x-xx--xx--|
G#||--5--5--5-55--55-\4--4--4-44--44--|
C#||----------------------------------|



Outro
Guitar 1:
D#||-------------------------------------------------|
A#||-------------------------------------------------|
F#||-------------------------------------------------|
C#||--0---0---0---0---0---0---0---0------------------| x2
G#||--0---0---0---0---0---0---0---0-----55---5---55--|
C#||--0---0---0---0---0---0---0---0---0----0---0-----|


Guitar 2:
D#||-------------------------------------------------|
A#||-------------------------------------------------|
F#||-------------------------------------------------|
C#||--0---0---0---0---0---0---0---0------------------|
G#||--0---0---0---0---0---0---0---0-----88---8---88--|
C#||--0---0---0---0---0---0---0---0---0----0---0-----|


D#||------------------------------------------------------|
A#||------------------------------------------------------|
F#||------------------------------------------------------|
C#||--0---0---0---0---0---0---0---0-----------------------|
G#||--0---0---0---0---0---0---0---0-----1313---13---1212--|
C#||--0---0---0---0---0---0---0---0---0------0----0-------|





____________________________________________________________________________________________________

                                        T10.   CALIFORNIA
____________________________________________________________________________________________________





Tuning: Guitar 1: Half-Step Down (D# G# C# F# A# D#)
        Guitar 2: Drop C# (C# G# C# F# A# D#)


Intro
Guitar 1:
D#||-------------------------------------------------------------|
A#||--10--------------10-----------------------------------------|
F#||--x---12--11------x---12--11------12--11--------12-11--------|
C#||--x-----------12--x-----------12--x------12-----x-----12-----|
G#||--10--------------10--------------x---------10--x--------10--|
D#||----------------------------------12------------12-----------|


D#||-----------------------------------------------------------------------|
A#||--------------------------------------------------12------10-----------|
F#||--12--11----------12--11----------12--11----------x---------------12~--|
C#||--x-------12------x-------12------x-------10--12--x---12------10-------|
G#||--x-----------10--x-----------10--x---------------x--------------------|
D#||--10--------------10--------------8---------------8--------------------|



Pre-Verse
Guitar 1:
D#||--------------------------------------------------|
A#||--------------------------------------------------|
F#||-------------------------5--55--555--4--44--4444--|
C#||--22--2--222--2--2-------5--55--555--5--55--5555--| x2
G#||--22--2--222--2--2-------3--33--333--2--22--2222--|
D#||--00--0--000--0--0--000---------------------------|
                        ...


Guitar 2:
D#||--------------------------------------------------------------------|
A#||--------------------------------------------------------------------|
F#||--1616--16--161414--14--14---------12--1212--121212-11-1111-7--777--|
C#||--x-x---x---x-x-x---x---x---x-x-x--x---x-x---x-x-x--x--x-x--x--xxx--|
G#||--1414--14--141212--12--12--x-x-x--10--1010--101010-9--9-9--5--555--|
c#||----------------------------x-x-x-----------------------------------|


D#||-----------------------------------------------------------------------|
A#||-----------------------------------------------------------------------|
F#||--1616--16--161414--14--14--121212--19--1919--191919-12--1212--121212--|
C#||--x-x---x---x-x-x---x---x---x-x-x---x---x-x---x-x-x--x---x-x---x-x-x---|
G#||--1414--14--141212--12--12--101010--17--1717--171717-10--1010--101010--|
c#||-----------------------------------------------------------------------|



Guitar 1:
D#||----------------------|---------------|
A#||----------------------|---------------|
F#||----------------------|--55555555--7--|
C#||--77--7--777--7--77~--|--55555555--7--|
G#||--55--5--555--5--55~--|--33333333--5--|
D#||--55--5--555--5--55~--|---------------|


Guitar 2:
D#||------------------------------------|----------------------------|
A#||------------------------------------|----------------------------|
F#||--1111--11--111212--12--12--14--14--|--99999999--1212121212-11~--|
C#||--x-x---x---x-x-x---x---x---x---x---|--xxxxxxxx--x-x-x-x-x--x----|
G#||--9-9---9---9-1010--10--10--12--12--|--77777777--1010101010-9-~--|
C#||------------------------------------|----------------------------|



Verse
Guitar 1:
D#||-------------------------------|------------------------0~------|
A#||-------------------------------|--------------------------3~----|
F#||----------------------------5--|----------------------------4~--|
C#||--2----0~----2----0~------5----|--2----0~----2----0~------------|
G#||--2--4~--4~--2--4~--4~--3------|--2--4~--4~--2--4~--4~----------|
D#||--0----------0-----------------|--0----------0------------------|
                            . .


Guitar 2:
D#||-------------------------------|------------------------0~------|
A#||-------------------------------|--------------------------3~----|
F#||----------------------------5--|----------------------------4~--|
C#||--2----------2------------5----|--2----------2------------------|
G#||--2----------2----------3------|--2----------2------------------|
C#||--2----------2-----------------|--2----------2------------------|
                            . .


Guitar 1/2:
||------------------------------------------------|
||------------------------------------------------|
||--5--55--555-4--44--444-7--77--777-5--555--555--|
||--5--55--555-5--55--555-7--77--777-7--777--777--|
||--3--33--333-2--22--222-5--55--555-5--555--555--|
||------------------------------------------------|


Guitar 1:
D#||-------------------------------|------------------------0~------|
A#||-------------------------------|--------------------------3~----|
F#||----------------------------5--|----------------------------4~--|
C#||--2----0~----2----0~------5----|--2----0~----2----0~------------|
G#||--2--4~--4~--2--4~--4~--3------|--2--4~--4~--2--4~--4~----------|
D#||--0----------0-----------------|--0----------0------------------|
                            . .


Guitar 2:
D#||-------------------------------|------------------------0~------|
A#||-------------------------------|--------------------------3~----|
F#||----------------------------5--|----------------------------4~--|
C#||--2----------2------------5----|--2----------2------------------|
G#||--2----------2----------3------|--2----------2------------------|
C#||--2----------2-----------------|--2----------2------------------|
                            . .


Guitar 1/2:
||------------------------------------------------|
||------------------------------------------------|
||--5--55--555-4--44--444-7--77--777-5--555--555--|
||--5--55--555-5--55--555-7--77--777-7--777--777--|
||--3--33--333-2--22--222-5--55--555-5--555--555--|
||------------------------------------------------|


Guitar 1:
D#||--------------------------------------------|
A#||--------------------------------------------|
F#||--------------------------------------------|
C#||--2--22--2222--22--2225--55--5555--55--555--|
G#||--2--22--2222--22--2225--55--5555--55--555--|
D#||--0--00--0000--00--0003--33--3333--33--333--|


Guitar 2:
D#||-----------------------------------------------------------------------|
A#||--------------------------------------12--12--121212-12--1212--121212--|
F#||--12--1212--121212-11---1111--111111--12--12--121212-12--1212--121212--|
C#||--x---x-x---x-x-x--x----x-x---x-x-x------------------------------------|
G#||--10--1010--101010-10---1010--101010-----------------------------------|
C#||-----------------------------------------------------------------------|



Chorus
Guitar 1:
D#||--------------------------------------------------------------------------------------------|
A#||--------------------------------------------------------------------------------------------|
F#||------------------------5--55--5~--55~--5555------------------------5--55--555--7--77--777--|
C#||--2--22--2~--22~--2222--5--55--5~--55~--5555--7--77--7~--77~--7777--5--55--555--7--77--777--|
G#||--2--22--2~--22~--2222--3--33--3~--33~--3333--5--55--5~--55~--5555--3--33--333--5--55--555--|
D#||--0--00--0~--00~--0000------------------------5--55--5~--55~--5555--------------------------|


D#||--------------------------------------------------------------------------------|
A#||--------------------------------------------------------------------------------|
F#||------------------------5--55--5~--55~--5555------------------------55555555-7--|
C#||--2--22--2~--22~--2222--5--55--5~--55~--5555--7--77--7~--77~--7777--55555555-7--|
G#||--2--22--2~--22~--2222--3--33--3~--33~--3333--5--55--5~--55~--5555--33333333-5--|
D#||--0--00--0~--00~--0000------------------------5--55--5~--55~--5555--------------|


Guitar 2:
D#||--------------------------------------------101010---------|
A#||--12-1212-101010-101010-888--12-1212-101010-101010-121212--|
F#||--12-1212-121212-121212-999--12-1212-121212--------121212--|
C#||-----------------------------------------------------------|
G#||-----------------------------------------------------------|
C#||-----------------------------------------------------------|


D#||-----------------------------------------|
A#||--7-77-777-888-101010-5-55-555-8-88-777--|
F#||--7-77-777-777-7-7-7--5-55-555-7-77-777--|
C#||-----------------------------------------|
G#||-----------------------------------------|
C#||-----------------------------------------|


D#||--------------------------------------------101010---------|
A#||--12-1212-101010-101010-888--12-1212-101010-101010-121212--|
F#||--12-1212-121212-121212-999--12-1212-121212--------121212--|
C#||-----------------------------------------------------------|
G#||-----------------------------------------------------------|
C#||-----------------------------------------------------------|


D#||----------------------------------|
A#||--7-77-777-888-101010-55555555-7--|
F#||--7-77-777-777-7-7-7--55555555-7--|
C#||----------------------------------|
G#||----------------------------------|
C#||----------------------------------|



Pre-Verse
Guitar 1:
D#||--------------------------------------------------|
A#||--------------------------------------------------|
F#||-------------------------5--55--555--4--44--4444--|
C#||--22--2--222--2--2-------5--55--555--5--55--5555--|
G#||--22--2--222--2--2-------3--33--333--2--22--2222--|
D#||--00--0--000--0--0--000---------------------------|
                        ...

D#||--------------------------------------|
A#||--------------------------------------|
F#||--------------------------55555555-7--|
C#||--22--2--222--2--2--2222--55555555-7--|
G#||--22--2--222--2--2--2222--33333333-5--|
D#||--00--0--000--0--0--0000--------------|


Guitar 2:
D#||--------------------------------------------------------------------|
A#||--------------------------------------------------------------------|
F#||--1616--16--161414--14--14---------12--1212--121212-11-1111-7--777--|
C#||--x-x---x---x-x-x---x---x---x-x-x--x---x-x---x-x-x--x--x-x--x--xxx--|
G#||--1414--14--141212--12--12--x-x-x--10--1010--101010-9--9-9--5--555--|
C#||----------------------------x-x-x-----------------------------------|


D#||-------------------------------------------------------------|
A#||-------------------------------------------------------------|
F#||--1616--16--161414--14--14--19191919--999999-1212121212/14~--|
C#||--x-x---x---x-x-x---x---x---x-x-x-x---xxxxxx-x-x-x-x-x-/x----|
G#||--1414--14--141212--12--12--17171717--777777-1010101010/12~--|
C#||-------------------------------------------------------------|



Verse
Guitar 1:
D#||-------------------------------|------------------------0~------|
A#||-------------------------------|--------------------------3~----|
F#||----------------------------5--|----------------------------4~--|
C#||--2----0~----2----0~------5----|--2----0~----2----0~------------|
G#||--2--4~--4~--2--4~--4~--3------|--2--4~--4~--2--4~--4~----------|
D#||--0----------0-----------------|--0----------0------------------|
                            . .


Guitar 2:
D#||-------------------------------|------------------------0~------|
A#||-------------------------------|--------------------------3~----|
F#||----------------------------5--|----------------------------4~--|
C#||--2----------2------------5----|--2----------2------------------|
G#||--2----------2----------3------|--2----------2------------------|
C#||--2----------2-----------------|--2----------2------------------|
                            . .


Guitar 1/2:
||------------------------------------------------|
||------------------------------------------------|
||--5--55--555-4--44--444-7--77--777-5--555--555--|
||--5--55--555-5--55--555-7--77--777-7--777--777--|
||--3--33--333-2--22--222-5--55--555-5--555--555--|
||------------------------------------------------|


Guitar 1:
D#||-------------------------------|------------------------0~------|
A#||-------------------------------|--------------------------3~----|
F#||----------------------------5--|----------------------------4~--|
C#||--2----0~----2----0~------5----|--2----0~----2----0~------------|
G#||--2--4~--4~--2--4~--4~--3------|--2--4~--4~--2--4~--4~----------|
D#||--0----------0-----------------|--0----------0------------------|
                            . .


Guitar 2:
D#||-------------------------------|------------------------0~------|
A#||-------------------------------|--------------------------3~----|
F#||----------------------------5--|----------------------------4~--|
C#||--2----------2------------5----|--2----------2------------------|
G#||--2----------2----------3------|--2----------2------------------|
C#||--2----------2-----------------|--2----------2------------------|
                            . .


Guitar 1/2:
||------------------------------------------------|
||------------------------------------------------|
||--5--55--555-4--44--444-7--77--777-5--555--555--|
||--5--55--555-5--55--555-7--77--777-7--777--777--|
||--3--33--333-2--22--222-5--55--555-5--555--555--|
||------------------------------------------------|


Guitar 1:
D#||----------------------------------------------------------|
A#||----------------------------------------------------------|
F#||----------------------------------------------------------|
C#||--2--22--2222--22--2222--55--5555--55--555----------------|
G#||--2--22--2222--22--2222--55--5555--55--555--///pick////---|
D#||--0--00--0000--00--0000--33--3333--33--333--////slide///--|


Guitar 2:
D#||------------------------------------------------------------------------------|
A#||--------------------------------------12--12--121212-12--121212---------------|
F#||--12--1212--121212-11---1111--111111--12--12--121212-12--121212---------------|
C#||--x---x-x---x-x-x--x----x-x---x-x-x-------------------------------------------|
G#||--10--1010--101010-10---1010--101010----------------------------///pick////---|
C#||----------------------------------------------------------------////slide///--|



Chorus
Guitar 1:
D#||--------------------------------------------------------------------------------------------|
A#||--------------------------------------------------------------------------------------------|
F#||------------------------5--55--5~--55~--5555------------------------5--55--555--7--77--777--|
C#||--2--22--2~--22~--2222--5--55--5~--55~--5555--7--77--7~--77~--7777--5--55--555--7--77--777--|
G#||--2--22--2~--22~--2222--3--33--3~--33~--3333--5--55--5~--55~--5555--3--33--333--5--55--555--|
D#||--0--00--0~--00~--0000------------------------5--55--5~--55~--5555--------------------------|


D#||---------------------------------------------------------------------------------------|
A#||---------------------------------------------------------------------------------------|
F#||------------------------5--55--5~--55~--5555------------------------55555555-----------|
C#||--2--22--2~--22~--2222--5--55--5~--55~--5555--7--77--7~--77~--7777--55555555-77777777--|
G#||--2--22--2~--22~--2222--3--33--3~--33~--3333--5--55--5~--55~--5555--33333333-55555555--|
D#||--0--00--0~--00~--0000------------------------5--55--5~--55~--5555-----------55555555--|


Guitar 2:
D#||--------------------------------------------101010---------|
A#||--12-1212-101010-101010-888--12-1212-101010-101010-121212--|
F#||--12-1212-121212-121212-999--12-1212-121212--------121212--|
C#||-----------------------------------------------------------|
G#||-----------------------------------------------------------|
C#||-----------------------------------------------------------|


D#||-----------------------------------------|
A#||--7-77-777-888-101010-5-55-555-8-88-777--|
F#||--7-77-777-777-7-7-7--5-55-555-7-77-777--|
C#||-----------------------------------------|
G#||-----------------------------------------|
C#||-----------------------------------------|


D#||--------------------------------------------101010---------|
A#||--12-1212-101010-101010-888--12-1212-101010-101010-121212--|
F#||--12-1212-121212-121212-999--12-1212-121212--------121212--|
C#||-----------------------------------------------------------|
G#||-----------------------------------------------------------|
C#||-----------------------------------------------------------|


D#||-----------------------------------------|
A#||--7-77-777-888-101010-55555555-77777777--|
F#||--7-77-777-777-7-7-7--55555555-77777777--|
C#||-----------------------------------------|
G#||-----------------------------------------|
C#||-----------------------------------------|



Interlude
Guitar 1:
D#||------------|------------|------------|--------------------|
A#||----8-7-----|----8-7-----|----8-7-----|----8-7---10-9-7----|
F#||--------7~--|--------7~--|--------7~--|--------7--------7--|
C#||------------|--0---------|------------|--0-----------------| x3
G#||------------|------------|------------|--------------------|
D#||--0---------|------------|--8---------|--------------------|


D#||-------------|
A#||-------------|
F#||-------------|
C#||--2----------|
G#||----------0--|
D#||------2------|


Guitar 2:
D#||-----------|-----------|-----------|-----------|
A#||-----------|-----------|-----------|-----------|
F#||-----------|-----------|--5-5-5-5--|--7-7-7-7--|
C#||--2-2-2-2--|--0-0-0-0--|--5-5-5-5--|--5-5-5-5--| x2
G#||--2-2-2-2--|--0-0-0-0--|--3-3-3-3--|--5-5-5-5--|
C#||--2-2-2-2--|--0-0-0-0--|-----------|-----------|


D#||-------------|
A#||-------------|
F#||-------------|
C#||--2----------|
G#||----------0--|
C#||------4------|



Bridge
Guitar 1:
D#||----------------------------------------7-------------------10-8-7------------|
A#||--8-7---------------10-8-7----------------10-8-7~------------------10-7b8r7~--|
F#||------9-7~-----------------7~-------------------------------------------------|
C#||------------------------------------------------------------------------------|
G#||------------------------------------------------------------------------------|
D#||------------------------------------------------------------------------------|


Guitar 2 (dub):
D#||--------------------------------------------------7------------------------------|
A#||-----------8-7----------------10-8-7----------------10-8-7~-----------10b12r10~--|
F#||---------------9-7~------------------7~------------------------------------------|
C#||---------------------------------------------------------------------------------|
G#||---------------------------------------------------------------------------------|
D#||---------------------------------------------------------------------------------|



Guitar 1:
D#||----------------------------------------7-------------------15-14-12--------------|
A#||--8-7---------------10-8-7----------------10-8-7~--------------------15~-/17-15~--|
F#||------9-7~-----------------7~-----------------------------------------------------|
C#||----------------------------------------------------------------------------------|
G#||----------------------------------------------------------------------------------|
D#||----------------------------------------------------------------------------------|


Guitar 2 (dub):
D#||--------------------------------------------------7------------------14---15-14~--|
A#||-----------8-7----------------10-8-7----------------10-8-7~-----------------------|
F#||---------------9-7~------------------7~-------------------------------------------|
C#||----------------------------------------------------------------------------------|
G#||----------------------------------------------------------------------------------|
D#||----------------------------------------------------------------------------------|


Guitar 3:
D#||-------------------------------------------------------------------|
A#||-------------------------------------------------------------------|
F#||--------------------------------------------------5-5-5-5-7-7-7-7--|
C#||--2-2-2-2-2-2-2-2-5-5-5-5-5-5-5-5-7-7-7-7-7-7-7-7-5-5-5-5-7-7-7-7--| x2
G#||--2-2-2-2-2-2-2-2-5-5-5-5-5-5-5-5-7-7-7-7-7-7-7-7-3-3-3-3-5-5-5-5--|
C#||--2-2-2-2-2-2-2-2-5-5-5-5-5-5-5-5-7-7-7-7-7-7-7-7------------------|



Chorus / Outro
Guitar 1:
D#||-------------------------------------------------------------------|
A#||-------------------------------------------------------------------|
F#||-------------------------------------------------------------------|
C#||--2-2-2-2-2-2-2-2-2-2-2-2-2-2-2-2-5-5-5-5-5-5-5-5-5-5-5-5-5-5-5-5--|
G#||--2-2-2-2-2-2-2-2-2-2-2-2-2-2-2-2-3-3-3-3-3-3-3-3-3-3-3-3-3-3-3-3--|
D#||--0-0-0-0-0-0-0-0-0-0-0-0-0-0-0-0-3-3-3-3-3-3-3-3-3-3-3-3-3-3-3-3--|


D#||-------------------------------------------------------------------|
A#||-------------------------------------------------------------------|
F#||-------------------------------------------------------------------|
C#||--7-7-7-7-7-7-7-7-7-7-7-7-7-7-7-7-5-5-5-5-5-5-5-5-7-7-7-7-7-7-7-7--|
G#||--5-5-5-5-5-5-5-5-5-5-5-5-5-5-5-5-3-3-3-3-3-3-3-3-5-5-5-5-5-5-5-5--|
D#||--5-5-5-5-5-5-5-5-5-5-5-5-5-5-5-5-3-3-3-3-3-3-3-3-5-5-5-5-5-5-5-5--|


Guitar 2:
D#||-----------------------------------------------|
A#||--12-12-12-12-12-12-12-12-10-10-10-10-8-8-8-8--|
F#||--12-12-12-12-12-12-12-12-11-11-11-11-9-9-9-9--|
C#||-----------------------------------------------|
G#||-----------------------------------------------|
C#||-----------------------------------------------|


D#||--------------------------10-10-10-10--------------|
A#||--12-12-12-12-12-12-12-12-10-10-10-10-12-12-12-12--|
F#||--12-12-12-12-12-12-12-12-------------12-12-12-12--|
C#||---------------------------------------------------|
G#||---------------------------------------------------|
C#||---------------------------------------------------|


D#||-----------------------------------------------------------------------|
A#||--7-7-7-7-7-7-7-7-8-8-8-8-10-10-10-10-5-5-5-5-5-5-5-5-7-7-7-7-7-7-7-7--|
F#||--7-7-7-7-7-7-7-7-7-7-7-7-7--7--7--7--5-5-5-5-5-5-5-5-7-7-7-7-7-7-7-7--|
C#||-----------------------------------------------------------------------|
G#||-----------------------------------------------------------------------|
C#||-----------------------------------------------------------------------|



Guitar 1:
D#||-------------------------------------------------------------------|
A#||-------------------------------------------------------------------|
F#||-------------------------------------------------------------------|
C#||--2-2-2-2-2-2-2-2-2-2-2-2-2-2-2-2-5-5-5-5-5-5-5-5-5-5-5-5-5-5-5-5--|
G#||--2-2-2-2-2-2-2-2-2-2-2-2-2-2-2-2-3-3-3-3-3-3-3-3-3-3-3-3-3-3-3-3--|
D#||--0-0-0-0-0-0-0-0-0-0-0-0-0-0-0-0-3-3-3-3-3-3-3-3-3-3-3-3-3-3-3-3--|


D#||-------------------------------------------------------------------|
A#||-------------------------------------------------------------------|
F#||-------------------------------------------------------------------|
C#||--7-7-7-7-7-7-7-7-7-7-7-7-7-7-7-7-5-5-5-5-5-5-5-5-7-7-7-7-7-7-7-7--|
G#||--5-5-5-5-5-5-5-5-5-5-5-5-5-5-5-5-3-3-3-3-3-3-3-3-5-5-5-5-5-5-5-5--|
D#||--5-5-5-5-5-5-5-5-5-5-5-5-5-5-5-5-3-3-3-3-3-3-3-3-5-5-5-5-5-5-5-5--|


Guitar 2:
D#||-----------------------------------------------|
A#||--12-12-12-12-12-12-12-12-10-10-10-10-8-8-8-8--|
F#||--12-12-12-12-12-12-12-12-11-11-11-11-9-9-9-9--|
C#||-----------------------------------------------|
G#||-----------------------------------------------|
C#||-----------------------------------------------|


D#||--------------------------10-10-10-10--------------|
A#||--12-12-12-12-12-12-12-12-10-10-10-10-12-12-12-12--|
F#||--12-12-12-12-12-12-12-12-------------12-12-12-12--|
C#||---------------------------------------------------|
G#||---------------------------------------------------|
C#||---------------------------------------------------|


D#||--14-14-14-14-14-14-14-14-15-15-15-15-17-17-17-17--|
A#||--15-15-15-15-15-15-15-15-15-15-15-15-15-15-15-15--|
F#||---------------------------------------------------|
C#||---------------------------------------------------|
G#||---------------------------------------------------|
C#||---------------------------------------------------|


D#||--12-12-12-12-12-12-12-12-15-15-15-15-14-14-14-14--|
A#||--13-13-13-13-13-13-13-13-15-15-15-15-15-15-15-15--|
F#||---------------------------------------------------|
C#||---------------------------------------------------|
G#||---------------------------------------------------|
C#||---------------------------------------------------|


Guitar 1:
D#||------|
A#||------|
F#||--4~--|
C#||--2~--|
G#||--2~--|
D#||------|





____________________________________________________________________________________________________

                                      T11.   THE WIND SHIFTS
____________________________________________________________________________________________________





Tuning: Drop A# (A# F A# D# G C)



Guitar 1/2:
C ||-------------------------------------------------------------------|
G ||-------------------------------------------------------------------|
D#||-------------------3~--------------------------------5~--------6~--|
A#||--0~---------------3~---------------3~---------------5~--------6~--| x2
F ||--0~---------------1~---------------3~---------------3~--------4~--|
A#||--0~--------------------------------3~-----------------------------|


Guitar 1:
C ||--13-13-13-13-13-13-13-13-12-12-12-12-12-12--------|
G ||--------------------------------------------11-11--|
D#||---------------------------------------------------|
A#||---------------------------------------------------|
F ||---------------------------------------------------|
A#||---------------------------------------------------|


C ||---------------------------------------------------|
G ||--15-15-15-15-15-15-15-15-11-11-11-11-11-11-11-11--|
D#||---------------------------------------------------|
A#||---------------------------------------------------|
F ||---------------------------------------------------|
A#||---------------------------------------------------|


C ||--13-13-13-13-13-13-13-13-15-15-15-15-15-15-15-15--|
G ||---------------------------------------------------|
D#||---------------------------------------------------|
A#||---------------------------------------------------|
F ||---------------------------------------------------|
A#||---------------------------------------------------|


C ||--13-13-13-13-13-13-13-13-13-13-13-13-13-13-13-13--|
G ||---------------------------------------------------|
D#||---------------------------------------------------|
A#||---------------------------------------------------|
F ||---------------------------------------------------|
A#||---------------------------------------------------|


C ||--13-13-13-13-13-13-13-13-12-12-12-12-12-12--------|
G ||--------------------------------------------11-11--|
D#||---------------------------------------------------|
A#||---------------------------------------------------|
F ||---------------------------------------------------|
A#||---------------------------------------------------|


C ||---------------------------------------------------|
G ||--15-15-15-15-15-15-15-15-11-11-11-11-11-11-11-11--|
D#||---------------------------------------------------|
A#||---------------------------------------------------|
F ||---------------------------------------------------|
A#||---------------------------------------------------|


C ||--13-13-13-13-13-13-13-13-15-15-15-15-15-15-15-15--|
G ||---------------------------------------------------|
D#||---------------------------------------------------|
A#||---------------------------------------------------|
F ||---------------------------------------------------|
A#||---------------------------------------------------|


C ||--13~--|
G ||-------|
D#||-------|
A#||-------|
F ||-------|
A#||-------|


Guitar 2:
C ||-------------------------------------------------------------------|
G ||-------------------------------------------------------------------|
D#||--3-3-3-3-3-3-3-3-5-5-5-5-5-5-5-5----------------------------------|
A#||--3-3-3-3-3-3-3-3-5-5-5-5-5-5-5-5-0-0-0-0-0-0-0-0-3-3-3-3-3-3-3-3--| x3
F ||--1-1-1-1-1-1-1-1-3-3-3-3-3-3-3-3-0-0-0-0-0-0-0-0-3-3-3-3-3-3-3-3--|
A#||----------------------------------0-0-0-0-0-0-0-0-3-3-3-3-3-3-3-3--|


C ||--------------------------------------|
G ||--------------------------------------|
D#||--3-3-3-3-3-3-3-3-5-5-5-5-5-5-5-5-----|
A#||--3-3-3-3-3-3-3-3-5-5-5-5-5-5-5-5-0~--|
F ||--1-1-1-1-1-1-1-1-3-3-3-3-3-3-3-3-0~--|
A#||----------------------------------0~--|





____________________________________________________________________________________________________

                                    T12.   TO LIVE AND TO LOSE
____________________________________________________________________________________________________





Tuning: Half-Step Down (D# G# C# F# A# D#)


Intro
Guitar 1/2:
D#||--------4-----------------------0-----------0-----|
A#||-----5-----5-----5--4--------2-----2-----2--------|
F#||--6-----------6--------4--2-----------2--------4--|
C#||--------------------------------------------------|
G#||--------------------------------------------------|
D#||--------------------------------------------------|



D#||----------4-----------------------0-----------0-----|
A#||-------5-----5-----5--4--------2-----2-----2-----2--|
F#||--4/6-----------6--------4--2-----------2-----------|
C#||----------------------------------------------------|
G#||----------------------------------------------------|
D#||----------------------------------------------------|


D#||----------4-----------------------0-----------0-----|
A#||-------5-----5-----5--4--------2-----2-----2--------|
F#||--4/6-----------6--------4--2-----------2--------4--|
C#||----------------------------------------------------|
G#||----------------------------------------------------|
D#||----------------------------------------------------|


D#||----------4-----------------------0-----------0-----|
A#||-------5-----5-----5--4--------2-----2-----2-----2--|
F#||--4/6-----------6--------4--2-----------2-----------|
C#||----------------------------------------------------|
G#||----------------------------------------------------|
D#||----------------------------------------------------|


D#||----------4-----------------------0-----------0-----|
A#||-------5-----5-----5--4--------2-----2-----2--------|
F#||--4/6-----------6--------4--2-----------2--------4--|
C#||----------------------------------------------------|
G#||----------------------------------------------------|
D#||----------------------------------------------------|


D#||----------4-----------------------0-----------------|
A#||-------5-----5-----5--4--------2--------2-----4-----|
F#||--4/6-----------6--------4--2--------2-----2-----4--|
C#||----------------------------------------------------|
G#||----------------------------------------------------|
D#||----------------------------------------------------|



Chorus
Guitar 1:
D#||--0-----0-----0-----0-----0-----0-----0-----0-----|
A#||--5-----5-----5-----5-----4-----4-----4-----4-----|
F#||-----6-----6-----6-----6-----6-----6-----6-----6--|
C#||--------------------------------------------------|
G#||--------------------------------------------------|
D#||--------------------------------------------------|


D#||--------------------------------------------------|
A#||--2-----2-----2-----2-----0-----0-----2-----4-----|
F#||-----4-----4-----4-----4-----4-----4-----4-----4--|
C#||--------------------------------------------------|
G#||--------------------------------------------------|
D#||--------------------------------------------------|


D#||--0-----0-----0-----0-----0-----0-----0-----0-----|
A#||--5-----5-----5-----5-----4-----4-----4-----4-----|
F#||-----6-----6-----6-----6-----6-----6-----6-----6--|
C#||--------------------------------------------------|
G#||--------------------------------------------------|
D#||--------------------------------------------------|


D#||------------------------------|
A#||--2-----2-----2-----2-----0~--|
F#||-----4-----4-----4-----4------|
C#||------------------------------|
G#||------------------------------|
D#||------------------------------|


Guitar 2:
D#||--------------------------------------------------|
A#||--------------------------------------------------|
F#||--------1-----------1-----------1--------1--------|
C#||-----2-----2-----2-----2-----2-----2--4-----4-----|
G#||--4-----------4-----------3--------------------3--|
D#||--------------------------------------------------|


D#||--------------------------------------------------|
A#||--------------------------------0-----------0-----|
F#||--------1-----------1--------------1-----------1--|
C#||-----2-----2-----2-----2-----2-----------2--------|
G#||--------------------------0-----------0-----------|
D#||--0-----------0-----------------------------------|


D#||--------------------------------------------------|
A#||--------------------------------------------------|
F#||--------1-----------1-----------1--------1--------|
C#||-----2-----2-----2-----2-----2-----2--4-----4-----|
G#||--4-----------4-----------3--------------------3--|
D#||--------------------------------------------------|


D#||------------------------------|
A#||--------0-----------0-----0~--|
F#||-----------1-----------1--1~--|
C#||-----2-----------2------------|
G#||--0-----------0---------------|
D#||------------------------------|



Verse
Guitar 1:
D#||--------4-----------------|--------------------------|
A#||-----5-----5-----5--4-----|--------------------------|
F#||--6-----------6--------4--|--2--2--2--2--2--2--2--2--|
C#||--------------------------|--2--2--2--2--2--2--2--2--| x4
G#||--------------------------|--0--0--0--0--0--0--0--0--|
D#||--------------------------|--------------------------|


Guitar 2:
D#||---------|--------------------------|---------|
A#||---'5~---|--------------------------|---------|
F#||---------|--2--2--2--2--2--2--2--2--|---------|
C#||---------|--2--2--2--2--2--2--2--2--|---------|
G#||---------|--0--0--0--0--0--0--0--0--|---------|
D#||---------|--------------------------|---'9~---|


Guitar 3 (Dub):
D#||---------|--------------------------|--------------------|
A#||---------|--------------------------|--------------------|
F#||---------|--2--2--2--2--2--2--2--2--|---'5~--'5-'5-'5~---|
C#||---------|--2--2--2--2--2--2--2--2--|--------------------|
G#||---------|--0--0--0--0--0--0--0--0--|--------------------|
D#||---'9~---|--------------------------|--------------------|


Guitar 2:
D#||------------------------|--------------------------|
A#||-----------------5------|--------------------------|
F#||---------4---------4----|--2--2--2--2--2--2--2--2--|
C#||-----4h6---6~--------6--|--2--2--2--2--2--2--2--2--|
G#||--4---------------------|--0--0--0--0--0--0--0--0--|
D#||------------------------|--------------------------|


D#||------------------------|--------------------------|
A#||------------------------|--------------------------|
F#||---------4-------7-6----|--2--2--2--2--2--2--2--2--|
C#||-----4h6---6~--------7--|--2--2--2--2--2--2--2--2--|
G#||--4---------------------|--0--0--0--0--0--0--0--0--|
D#||------------------------|--------------------------|



Chorus
Guitar 1:
D#||--------0-----0-----0-----------0-----0-----0-----|
A#||--------5-----5-----5-----------4-----4-----4-----|
F#||-----6-----6-----6-----6-----6-----6-----6-----6--|
C#||--6-----------------------6-----------------------|
G#||--------------------------------------------------|
D#||--------------------------------------------------|


D#||--------0-----0-----0-----------0-----0-----0-----|
A#||--------2-----2-----2-----------2-----2-----4-----|
F#||-----4-----4-----4-----4-----4-----4-----4-----4--|
C#||--2-----------------------2-----------------------|
G#||--------------------------------------------------|
D#||--------------------------------------------------|


D#||--------0-----0-----0-----------0-----0-----0-----|
A#||--------5-----5-----5-----------4-----4-----4-----|
F#||-----6-----6-----6-----6-----6-----6-----6-----6--|
C#||--6-----------------------6-----------------------|
G#||--------------------------------------------------|
D#||--------------------------------------------------|


D#||--------0-----0-----0-----------0-----0-----0-----|
A#||--------2-----2-----4-----------4-----5-----5-----|
F#||-----4-----4-----4-----4-----4-----4-----4-----4--|
C#||--2-----------------------2-----------------------|
G#||--------------------------------------------------|
D#||--------------------------------------------------|


Guitar 2:
D#||--------------------------------------------------|
A#||--------------------------------------------------|
F#||--------1-----1-----1-----------1--------1--------|
C#||-----2-----2-----2-----2-----2-----2--4-----4-----|
G#||--4-----------------------3--------------------3--|
D#||--------------------------------------------------|


D#||--------------------------------------------------|
A#||--------------------------------------------0-----|
F#||--------1-----1-----1-----------1-----1--------1--|
C#||-----2-----2-----2-----2-----2-----2-----2--------|
G#||--------------------------0-----------------------|
D#||--0-----------------------------------------------|


D#||--------------------------------------------------|
A#||--------------------------------------------------|
F#||--------1-----1-----1-----------1--------1--------|
C#||-----2-----2-----2-----2-----2-----2--4-----4-----|
G#||--4-----------------------3--------------------3--|
D#||--------------------------------------------------|


D#||-----------------------------------------------------|
A#||--------------------0--------------------------------|
F#||--------1-----1--------1--------1------1-------------|
C#||-----2-----2-----2-----------2-----2------2----------|
G#||--0--------------------------------------------------|
D#||--------------------------0-------------------//9\\--|



Bridge
Guitar 1:
D#||-----------------------------------------------------------------|
A#||-----------------------------------------------------------------|
F#||-----------------------------------------------------------------|
C#||--9--11-9--------------------------------------------------------|
G#||--0--0--0--11~--1111--11--1111---7--7--9--11~--1111---11---1111--|
D#||-----------0-~--0-0---0---0-0----5--5--7--9-~--9-9----9----9-9---|


D#||--------------------------------------------------------------|
A#||--------------------------------------------------------------|
F#||--------------------------------------------------------------|
C#||--9--11-9-----------------------------------------------------|
G#||--0--0--0--11~--1111--11--1111---9~--9-9--9~---9-9-9-9-9-9-9--|
D#||-----------0-~--0-0---0---0-0----7~--7-7--7~---7-7-7-7-7-7-7--|


D#||-----------------------------------------------------------------|
A#||-----------------------------------------------------------------|
F#||-----------------------------------------------------------------|
C#||--9--11-9--------------------------------------------------------|
G#||--0--0--0--11~--1111--11--1111---7--7--9--11~--1111---11---1111--|
D#||-----------0-~--0-0---0---0-0----5--5--7--9-~--9-9----9----9-9---|


D#||---------------------------------------------------|
A#||---------------------------------------------------|
F#||---------------------------------------------------|
C#||--9--11-9------------------------------------------|
G#||--0--0--0--11~--1111--11--1111---9999999999999999--|
D#||-----------0-~--0-0---0---0-0----7777777777777777--|


Guitar 2:
D#||-------------------------------------------------------------|
A#||-------------------------------------------------------------|
F#||--2--2--2-----------------------2--2--4--6~---6-6---6---6-6--|
C#||--2--2--2--2~---2-2---2---2-2---2--2--4--6~---6-6---6---6-6--|
G#||--0--0--0--2~---2-2---2---2-2---0--0--2--4~---4-4---4---4-4--|
D#||-----------0~---0-0---0---0-0--------------------------------|


D#||-------------------------------------------------------------|
A#||-------------------------------------------------------------|
F#||--2--2--2-----------------------4~--4-4--4~---4-4-4-4-4-4-4--|
C#||--2--2--2--2~---2-2---2---2-2---4~--4-4--4~---4-4-4-4-4-4-4--|
G#||--0--0--0--2~---2-2---2---2-2---2~--2-2--2~---2-2-2-2-2-2-2--|
D#||-----------0~---0-0---0---0-0--------------------------------|


D#||-------------------------------------------------------------|
A#||-------------------------------------------------------------|
F#||--2--2--2-----------------------2--2--4--6~---6-6---6---6-6--|
C#||--2--2--2--2~---2-2---2---2-2---2--2--4--6~---6-6---6---6-6--|
G#||--0--0--0--2~---2-2---2---2-2---0--0--2--4~---4-4---4---4-4--|
D#||-----------0~---0-0---0---0-0--------------------------------|


D#||--------------------------------------------------|
A#||--------------------------------------------------|
F#||--2--2--2-----------------------4444444444444444--|
C#||--2--2--2--2~---2-2---2---2-2---4444444444444444--|
G#||--0--0--0--2~---2-2---2---2-2---2222222222222222--|
D#||-----------0~---0-0---0---0-0---------------------|


Guitar 3:
D#||-------------------------------------------------------------|
A#||-------------------------------------------------------------|
F#||--11--9--11--13--1313--13--1313--14--1313-1111-9--99--9--99--|
C#||--x---x--x---x---x-x---x---x-x---x---x-x--x-x--x--xx--x--xx--|
G#||--9---7--9---11--1111--11--1111--12--1111-9-9--7--77--7--77--|
D#||-------------------------------------------------------------|


D#||---------------------------------------------------------------------|
A#||---------------------------------------------------------------------|
F#||--11--9--11--13--1313--13--1313--11111111-13131313-1414141414141414--|
C#||--x---x--x---x---x-x---x---x-x---x-x-x-x--x-x-x-x--x-x-x-x-x-x-x-x---|
G#||--9---7--9---11--1111--11--1111--9-9-9-9--11111111-1212121212121212--|
D#||---------------------------------------------------------------------|



Interlude
Guitar 1:
D#||--------------------------------------------------|
A#||--5--5--5--5--5--5--5--5--4--4--4--4--4--4--4--4--|
F#||--6--6--6--6--6--6--6--6--6--6--6--6--6--6--6--6--|
C#||--------------------------------------------------|
G#||--------------------------------------------------|
D#||--------------------------------------------------|
      .  .  .  .  .  .  .  .  .  .  .  .  .  .  .  .


D#||--------------------------------------------------|
A#||--2--2--2--2--2--2--2--2--0--0--0--0--2--2--4--4--|
F#||--4--4--4--4--4--4--4--4--4--4--4--4--4--4--4--4--|
C#||--------------------------------------------------|
G#||--------------------------------------------------|
D#||--------------------------------------------------|
      .  .  .  .  .  .  .  .  .  .  .  .  .  .  .  .




Guitar 1:
D#||--0-----0-----0-----0-----0-----0-----0-----0-----|
A#||--5-----5-----5-----5-----4-----4-----4-----4-----|
F#||-----6-----6-----6-----6-----6-----6-----6-----6--|
C#||--------------------------------------------------|
G#||--------------------------------------------------|
D#||--------------------------------------------------|
         .     .     .     .     .     .     .     .


D#||--------------------------------------------------|
A#||--2-----2-----2-----2-----0--0--0--0--2--2--4--4--|
F#||--4--4--4--4--4--4--4--4--4--4--4--4--4--4--4--4--|
C#||--------------------------------------------------|
G#||--------------------------------------------------|
D#||--------------------------------------------------|
         .     .     .     .


Guitar 2:
D#||-----------------------------------------------|
A#||-----------------------------------------------|
F#||-----------------------------------------------|
C#||--6-----6-----6-----6-----6-----6-----6-----6--|
G#||--4-----4-----4-----4-----3-----3-----3-----3--|
D#||-----------------------------------------------|


D#||-------------------------------------------------|
A#||-------------------------------------------------|
F#||-------------------------------------------------|
C#||--2-----2-----2-----2-----2--2--2--2--2--222222--|
G#||--0-----0-----0-----0-----2--2--2--2--2--222222--|
D#||--------------------------0--0--0--0--0--000000--|



Chorus
Guitar 1:
D#||--------0-----0-----0-----------0-----0-----0-----|
A#||--------5-----5-----5-----------4-----4-----4-----|
F#||-----6-----6-----6-----6-----6-----6-----6-----6--|
C#||--6-----------------------6-----------------------|
G#||--------------------------------------------------|
D#||--------------------------------------------------|


D#||--------0-----0-----0-----------0-----0-----0-----|
A#||--------2-----2-----2-----------2-----2-----4-----|
F#||-----4-----4-----4-----4-----4-----4-----4-----4--|
C#||--2-----------------------2-----------------------|
G#||--------------------------------------------------|
D#||--------------------------------------------------|


D#||--------0-----0-----0-----------0-----0-----0-----|
A#||--------5-----5-----5-----------4-----4-----4-----|
F#||-----6-----6-----6-----6-----6-----6-----6-----6--|
C#||--6-----------------------6-----------------------|
G#||--------------------------------------------------|
D#||--------------------------------------------------|


D#||--------0-----0-----0-----------0-----0-----0-----|
A#||--------2-----2-----4-----------4-----5-----5-----|
F#||-----4-----4-----4-----4-----4-----4-----4-----4--|
C#||--2-----------------------2-----------------------|
G#||--------------------------------------------------|
D#||--------------------------------------------------|


Guitar 2:
D#||--------------------------------------------------|
A#||--------------------------------------------------|
F#||--------1-----1-----1-----------1--------1--------|
C#||-----2-----2-----2-----2-----2-----2--4-----4-----|
G#||--4-----------------------3--------------------3--|
D#||--------------------------------------------------|


D#||--------------------------------------------------|
A#||--------------------------------------------0-----|
F#||--------1-----1-----1-----------1-----1--------1--|
C#||-----2-----2-----2-----2-----2-----2-----2--------|
G#||--------------------------0-----------------------|
D#||--0-----------------------------------------------|


D#||--------------------------------------------------|
A#||--------------------------------------------------|
F#||--------1-----1-----1-----------1--------1--------|
C#||-----2-----2-----2-----2-----2-----2--4-----4-----|
G#||--4-----------------------3--------------------3--|
D#||--------------------------------------------------|


D#||---------------------------------------------------|
A#||--------------------0------------------------------|
F#||--------1-----1--------1--------1------1-----1-----|
C#||-----2-----2-----2-----------2-----2------2-----2--|
G#||--0------------------------------------------------|
D#||--------------------------0------------------------|




Guitar 1:
D#||-----------------------------------------------------|
A#||-----------------------------------------------------|
F#||--6--6--6--6--6--6--11--8--9--9--9--9--9--9--12--14--|
C#||--x--x--x--x--x--x--x---x--x--x--x--x--x--x--x---x---|
G#||--4--4--4--4--4--4--9---6--7--7--7--7--7--7--10--12--|
D#||-----------------------------------------------------|


D#||-----------------------------------------------------|
A#||-----------------------------------------------------|
F#||--13--13--13--13--13--13--9--9--9--9--9--9--9--9--9--|
C#||--x---x---x---x---x---x---x--x--x--x--x--x--x--x--x--|
G#||--11--11--11--11--11--11--7--7--7--7--7--7--7--7--7--|
D#||-----------------------------------------------------|


D#||-----------------------------------------------------|
A#||-----------------------------------------------------|
F#||--6--6--6--6--6--6--11--8--9--9--9--9--9--9--12--14--|
C#||--x--x--x--x--x--x--x---x--x--x--x--x--x--x--x---x---|
G#||--4--4--4--4--4--4--9---6--7--7--7--7--7--7--10--12--|
D#||-----------------------------------------------------|


D#||------------------------------------------------------------------|
A#||------------------------------------------------------------------|
F#||--13--13--13--13--13--13--13--9---9---9---9---9-------------------|
C#||--x---x---x---x---x---x---x---x---x---x---x---x---11--11--13--13--|
G#||--11--11--11--11--11--11--11--14--14--14--14--14------------------|
D#||------------------------------------------------------------------|


Guitar 2:
D#||--------------------------------------------------|
A#||--------------------------------------------------|
F#||--6--6--6--6--6--6--6--6--6--6--6--6--6--6--6--6--|
C#||--6--6--6--6--6--6--6--6--6--6--6--6--6--6--6--6--|
G#||--4--4--4--4--4--4--4--3--3--3--3--3--3--3--3--3--|
D#||--------------------------------------------------|


D#||--------------------------------------------------|
A#||--------------------------------------------------|
F#||-----------------------2--2--2--2--2--2--2--2--2--|
C#||--2--2--2--2--2--2--2--2--2--2--2--2--2--2--2--2--|
G#||--2--2--2--2--2--2--2--0--0--0--0--0--0--0--0--0--|
D#||--0--0--0--0--0--0--0-----------------------------|


D#||--------------------------------------------------|
A#||--------------------------------------------------|
F#||--6--6--6--6--6--6--6--6--6--6--6--6--6--6--6--6--|
C#||--6--6--6--6--6--6--6--6--6--6--6--6--6--6--6--6--|
G#||--4--4--4--4--4--4--4--3--3--3--3--3--3--3--3--3--|
D#||--------------------------------------------------|


D#||--------------------------------------------------|
A#||--------------------------------------------------|
F#||--2--2--2--2--2--2--2--2--2-----------------------|
C#||--2--2--2--2--2--2--2--2--2--2--2--2--2--2--2--2--|
G#||--0--0--0--0--0--0--0--0--0--2--2--2--2--2--2--2--|
D#||-----------------------------0--0--0--0--0--0--0--|



Outro
Guitar 1:
D#||----------------------------------------------------|
A#||----------------------------------------------------|
F#||--9-9-9-9-9-9-9-8~---8-8-8-8-8-8-8------------------|
C#||-----------------------------------9-9-9-9-9-9-6-9--|
G#||----------------------------------------------------|
D#||----------------------------------------------------|


D#||--------------------------------------------------------|
A#||--------------------------------------------------------|
F#||--6--66666666666--8-8-9-9-9-9-9-9-9-8~---8-8-8-8-8-8-8--|
C#||--------------------------------------------------------|
G#||--------------------------------------------------------|
D#||--------------------------------------------------------|


D#||-----------------------------------|
A#||-----------------------------------|
F#||-----------------------------------|
C#||--9-9-9-9-9-9-9-9-9-9-9-9-9-9-9-9--|
G#||-----------------------------------|
D#||-----------------------------------|


Guitar 2:
D#||-----------------------------------------------------------|
A#||-----------------------------------------------------------|
F#||--13-13--9-9--13-14-13-11----9-9-9---13h14-11h13-13--------|
C#||--x--x---x-x--x--x--x--x-----x-x-x------------------14-14--|
G#||--11-11--7-7--11-12-11-9-----7-7-7-------------------------|
D#||-----------------------------------------------------------|


D#||---------------------------------------|
A#||---------------------------------------|
F#||-----11--------------------------------|
C#||--14----13-14-11-11-11-11--------------|
G#||--------------------------14-14-12-12--|
D#||---------------------------------------|


D#||-------------------------------------------------------------|
A#||-------------------------------------------------------------|
F#||--13-13--9-9--13-14-13-11----13-13-13---16-14----13-13-------|
C#||--x--x---x-x--x--x--x--x-----x--x--x----------16------14-14--|
G#||--11-11--7-7--11-12-11-9-----11-11-11------------------------|
D#||-------------------------------------------------------------|


D#||---------------------------------------|
A#||---------------------------------------|
F#||---------------------------------------|
C#||--14h16-13-14-14-14-14-14-14-14-14-14--|
G#||---------------------------------------|
D#||---------------------------------------|


Guitar 3:
D#||-------------------------------------------------------------------|
A#||-------------------------------------------------------------------|
F#||-------------------------------------------------------------------|
C#||--6-6-6-6-6-6-6-6---6-6-6-6-6-6-6-------------2-2-2-2-2-2-2-2-4-4--|
G#||--4-4-4-4-4-4-4-3---3-3-3-3-3-3-3-2-2-2-2-2-2-0-0-0-0-0-0-0-0-2-2--|
D#||----------------------------------0-0-0-0-0-0----------------------|


D#||-------------------------------------------------------------------|
A#||-------------------------------------------------------------------|
F#||-------------------------------------------------------------------|
C#||--6-6-6-6-6-6-6-6---6-6-6-6-6-6-6-2-2-2-2-2-2-2-2-2-2-2-2-2-2-2-2--|
G#||--4-4-4-4-4-4-4-3---3-3-3-3-3-3-3-0-0-0-0-0-0-0-2-2-2-2-2-2-2-2-2--|
D#||------------------------------------------------0-0-0-0-0-0-0-0-0--|





____________________________________________________________________________________________________

                                   T13.   WITH SECOND CHANCES
____________________________________________________________________________________________________





Tuning: Drop A# (A# F A# D# G C)


Intro
Guitar 1/2:
C ||-----------------------------------|
G#||-----------------------------------|
D#||-----------------------------------|
A#||--8~------------7~------------12~--|
F ||--5~------------8~------------8-~--|
A#||--5~------------7~------------8-~--|


Guitar 1:
C ||-------|
G#||-------|
D#||-------|
A#||--10~--|
F ||--8-~--|
A#||--8-~--|


Guitar 2:
C ||-------------|
G#||-------------|
D#||-------------|
A#||--9-~--h10~--|
F ||--10~--------|
A#||-------------|


Guitar 1/2:
C ||---------------------------------------------------------|
G#||---------------------------------------------------------|
D#||---------------------------------------------------------|
A#||--15-1515--1515--1515---1515-14-1414--1414--1414---1414--|
F ||--12-1212--1212--1212---1212-10-1010--1010--1010---1010--|
A#||--12-1212--1212--1212---1212-10-1010--1010--1010---1010--|


C ||---------------------------------------------------------|
G#||---------------------------------------------------------|
D#||---------------------------------------------------------|
A#||--12-1212--1212--1212---1212-12-1212--1212--1212---1212--|
F ||--8--8-8---8-8---8-8----8-8--8--8-8---8-8---8-8----8-8---|
A#||--8--8-8---8-8---8-8----8-8--8--8-8---8-8---8-8----8-8---|



Verse
Guitar 1:
C ||---------------------------------------------------------|
G#||---------------------------------------------------------|
D#||---------------------------------------------------------|
A#||--8~------------7~------------12-1212--1212--1212---10~--|
F ||--5~------------8~------------8--8-8---8-8---8-8----8-~--|
A#||--5~------------7~------------8--8-8---8-8---8-8----8-~--|


Guitar 2:
C ||---------------------------------------------------------|
G#||---------------------------------------------------------|
D#||---------------------------------------------------------|
A#||--8~-----------------------7--12-1212--1212--1212---10~--|
F ||--5~---------------8--10------8--8-8---8-8---8-8----8-~--|
A#||--5~------------7-------------8--8-8---8-8---8-8----8-~--|


Guitar 1/2:
C ||---------------------------------------------------------|
G#||---------------------------------------------------------|
D#||---------------------------------------------------------|
A#||--15-1515--1515--1515---1515-14-1414--1414--1414---1414--|
F ||--12-1212--1212--1212---1212-10-1010--1010--1010---1010--|
A#||--12-1212--1212--1212---1212-10-1010--1010--1010---1010--|


C ||---------------------------------------------------------|
G#||---------------------------------------------------------|
D#||---------------------------------------------------------|
A#||--12-1212--1212--1212---1212-12-1212--1212--1212---1212--|
F ||--8--8-8---8-8---8-8----8-8--8--8-8---8-8---8-8----8-8---|
A#||--8--8-8---8-8---8-8----8-8--8--8-8---8-8---8-8----8-8---|



Pre-Chorus
Guitar 1/2:
C ||--------------------------------------------------------------|
G#||--------------------------------------------------------------|
D#||--7--------5----------------------7--------5-----------x------|
A#||--8--5--5--7--3--3-------------------5--5-----3--3------7~----| x2
F ||-----5--5-----3--3--------0--7--8----5--5-----3--3-------8~---|
A#||-----5--5-----3--3-------------------5--5-----3--3--------7~--|
         .  .     .  .                   .  .     .  .


Guitar 1:
C ||-------|
G#||--'5~--|
D#||-------|
A#||-------|
F ||-------|
A#||-------|


Guitar 2:
C ||-------|
G#||-------|
D#||-------|
A#||--'3~--|
F ||-------|
A#||-------|



Chorus
Guitar 1:
C ||--------------------------------------------------|
G#||-----15-------------------13-13-------------------|
D#||--12----14-15---15-15-15--------15-14---15-14-----|
A#||----------------------------------------------15--|
F ||--------------------------------------------------|
A#||--------------------------------------------------|


C ||---------------------------------------------------|
G#||-----15--------------------------------------------|
D#||--12----14-15---15-15-15--14----12-12-12-12-14-14--|
A#||-----------------------------15--------------------|
F ||---------------------------------------------------|
A#||---------------------------------------------------|


C ||--------------------------------------------------|
G#||-----15-------------------13-13-------------------|
D#||--12----14-15---15-15-15--------15-14---15-14-----|
A#||----------------------------------------------15--|
F ||--------------------------------------------------|
A#||--------------------------------------------------|


C ||---------------------------------------------------|
G#||-----15--------------------------------------------|
D#||--12----14-15---15-15-15--14-14-14-12-12-12-11-11--|
A#||---------------------------------------------------|
F ||---------------------------------------------------|
A#||---------------------------------------------------|


Guitar 2:
C ||-----------------------------------------------------------------------------------|
G#||-----------------------------------------------------------------------------------|
D#||--8-8-8-8-8-8-8-8-10-10-10-10-10-10-10-10-12-12-12-12-12-12-12-12-7-7-7-7-7-7-7-7--|
A#||--8-8-8-8-8-8-8-8-10-10-10-10-10-10-10-10-12-12-12-12-12-12-12-12-7-7-7-7-7-7-7-7--| x2
F ||--6-6-6-6-6-6-6-6-8--8--8--8--8--8--8--8--10-10-10-10-10-10-10-10-5-5-5-5-5-5-5-5--|
A#||-----------------------------------------------------------------------------------|



Verse
Guitar 1:
C ||---------------------------------------------------------|
G#||---------------------------------------------------------|
D#||---------------------------------------------------------|
A#||--8~------------7~------------12-1212--1212--1212---10~--|
F ||--5~------------8~------------8--8-8---8-8---8-8----8-~--|
A#||--5~------------7~------------8--8-8---8-8---8-8----8-~--|


Guitar 2:
C ||---------------------------------------------------------|
G#||---------------------------------------------------------|
D#||---------------------------------------------------------|
A#||--8~-----------------------7--12-1212--1212--1212---10~--|
F ||--5~---------------8--10------8--8-8---8-8---8-8----8-~--|
A#||--5~------------7-------------8--8-8---8-8---8-8----8-~--|


Guitar 1/2:
C ||---------------------------------------------------------|
G#||---------------------------------------------------------|
D#||---------------------------------------------------------|
A#||--15-1515--1515--1515---1515-14-1414--1414--1414---1414--|
F ||--12-1212--1212--1212---1212-10-1010--1010--1010---1010--|
A#||--12-1212--1212--1212---1212-10-1010--1010--1010---1010--|


C ||---------------------------------------------------------|
G#||---------------------------------------------------------|
D#||---------------------------------------------------------|
A#||--12-1212--1212--1212---1212-12-1212--1212--1212---1212--|
F ||--8--8-8---8-8---8-8----8-8--8--8-8---8-8---8-8----8-8---|
A#||--8--8-8---8-8---8-8----8-8--8--8-8---8-8---8-8----8-8---|



Guitar 1/2:
C ||--------------------------------------------------------------------------|
G#||--------------------------------------------------------------------------|
D#||--------------------------------------------------------------------------|
A#||--8--8--8-8--8--8-7--7--7-7--7--7-12-12-1212-12-1210~---------------------|
F ||--5--5--5-5--5--5-8--8--8-8--8--8-8--8--8-8--8--8-8-~------\\\pick\\\-----|
A#||--5--5--5-5--5--5-7--7--7-7--7--7-8--8--8-8--8--8-8-~---x---\\\\slide\\\--|


C ||---------------------------------------------------------|
G#||---------------------------------------------------------|
D#||---------------------------------------------------------|
A#||--15-1515--1515--1515---1515-14-1414--1414--1414---1414--|
F ||--12-1212--1212--1212---1212-10-1010--1010--1010---1010--|
A#||--12-1212--1212--1212---1212-10-1010--1010--1010---1010--|


C ||-----------------------------------------------|
G#||-----------------------------------------------|
D#||-----------------------------------------------|
A#||--12-1212--1212--1212---1212-12-12-------------|
F ||--8--8-8---8-8---8-8----8-8--8--8--------------|
A#||--8--8-8---8-8---8-8----8-8--8--8--xxxxxxxx----|



Pre-Chorus
Guitar 1/2:
C ||--------------------------------------------------------------|
G#||--------------------------------------------------------------|
D#||--7--------5----------------------7--------5-----------x------|
A#||--8--5--5--7--3--3-------------------5--5-----3--3------7~----|
F ||-----5--5-----3--3--------0--7--8----5--5-----3--3-------8~---|
A#||-----5--5-----3--3-------------------5--5-----3--3--------7~--|
         .  .     .  .                   .  .     .  .


C ||-----------------------------------------------------------|
G#||-----------------------------------------------------------|
D#||--7--------5----------------------7--------5---------------|
A#||--8--5--5--7--3--3-------------------5--5-----3--3-----7~--|
F ||-----5--5-----3--3--------0--7--8----5--5-----3--3-----8~--|
A#||-----5--5-----3--3-------------------5--5-----3--3-----7~--|
         .  .     .  .                   .  .     .  .



Chorus
Guitar 1:
C ||--------------------------------------------------|
G#||-----15-------------------13-13-------------------|
D#||--12----14-15---15-15-15--------15-14---15-14-----|
A#||----------------------------------------------15--|
F ||--------------------------------------------------|
A#||--------------------------------------------------|


C ||---------------------------------------------------|
G#||-----15--------------------------------------------|
D#||--12----14-15---15-15-15--14----12-12-12-12-14-14--|
A#||-----------------------------15--------------------|
F ||---------------------------------------------------|
A#||---------------------------------------------------|


C ||--------------------------------------------------|
G#||-----15-------------------13-13-------------------|
D#||--12----14-15---15-15-15--------15-14---15-14-----|
A#||----------------------------------------------15--|
F ||--------------------------------------------------|
A#||--------------------------------------------------|


C ||-------------------------------------|
G#||-----15-------------------15~--------|
D#||--12----14-15---15-15-15--17~-b-19~--|
A#||-------------------------------------|
F ||-------------------------------------|
A#||-------------------------------------|


Guitar 2:
C ||-----------------------------------------------------------------------------------|
G#||-----------------------------------------------------------------------------------|
D#||--8-8-8-8-8-8-8-8-10-10-10-10-10-10-10-10-12-12-12-12-12-12-12-12-7-7-7-7-7-7-7-7--|
A#||--8-8-8-8-8-8-8-8-10-10-10-10-10-10-10-10-12-12-12-12-12-12-12-12-7-7-7-7-7-7-7-7--|
F ||--6-6-6-6-6-6-6-6-8--8--8--8--8--8--8--8--10-10-10-10-10-10-10-10-5-5-5-5-5-5-5-5--|
A#||-----------------------------------------------------------------------------------|


C ||--------------------------------------------------------------------------------------|
G#||--------------------------------------------------------------------------------------|
D#||--8-8-8-8-8-8-8-8-10-10-10-10-10-10-10-10-12-12-12-12-12-12-12-12-7-7-7-7-7-7---------|
A#||--8-8-8-8-8-8-8-8-10-10-10-10-10-10-10-10-12-12-12-12-12-12-12-12-7-7-7-7-7-7-//12\\--|
F ||--6-6-6-6-6-6-6-6-8--8--8--8--8--8--8--8--10-10-10-10-10-10-10-10-5-5-5-5-5-5-//12\\--|
A#||------------------------------------------------------------------------------//12\\--|



Guitar 1:
C ||---------------------------------------------------|
G#||---------------------------------------------------|
D#||--12-12-12-14-14-14-15-15----------14-14-14-15-15--|
A#||--------------------------15-15-15-----------------|
F ||---------------------------------------------------|
A#||---------------------------------------------------|


C ||---------------------------------------------------|
G#||--------------------------15-15-15-13-13-13--------|
D#||--12-12-12-14-14-14-15-15-------------------15-15--|
A#||---------------------------------------------------|
F ||---------------------------------------------------|
A#||---------------------------------------------------|


C ||---------------------------------------------------|
G#||---------------------------------------------------|
D#||--12-12-12-14-14-14-15-15----------14-14-14-15-15--|
A#||--------------------------15-15-15-----------------|
F ||---------------------------------------------------|
A#||---------------------------------------------------|


C ||--------------------------------------|
G#||---------------------------15~--------|
D#||--12-12-12-14-14-14-15-15--17~-b-19~--|
A#||--------------------------------------|
F ||--------------------------------------|
A#||--------------------------------------|


Guitar 2:
C ||-------------------------------------------------------------------|
G#||-------------------------------------------------------------------|
D#||-------------------------------------------------------------------|
A#||--1-1-1-1-1-1-1-1-3-3-3-3-3-3-3-3-5-5-5-5-5-5-5-5-0-0-0-0-0-0-0-0--| x2
F ||--1-1-1-1-1-1-1-1-3-3-3-3-3-3-3-3-5-5-5-5-5-5-5-5-0-0-0-0-0-0-0-0--|
A#||--1-1-1-1-1-1-1-1-3-3-3-3-3-3-3-3-5-5-5-5-5-5-5-5-0-0-0-0-0-0-0-0--|



Breakdown
Guitar 1/2:
C ||----------------------------------------------|----------------------------------------------|
G#||----------------------------------------------|----------------------------------------------|
D#||----------------------------------------------|----------------------------------------------|
A#||--0-----0-----0-----0--------0---0---0----1~--|--0-----0-----0-----0--------0---0---0----1~--|
F ||--0-----0-----0-----0--------0---0---0----1~--|--0-----0-----0-----0--------0---0---0----1~--|
A#||--0-----0--0000-----0--------0---0---0----1~--|--0-----0--0000-----0--------0---0---0----1~--|
               ...                                            ...



Bridge
Guitar 1:
C ||-------------------------------------------|
G#||-------------------------------------------|
D#||--14~-----15~----17-15-14----10~----12-7~--|
A#||--x-------x------x--x--x-----x------x--x---| x2
F ||--12~-----13~----15-13-12~---8-~----10-5~--|
A#||-------------------------------------------|


Guitar 2:
C ||-------------------------------------------|
G#||-------------------------------------------|
D#||-------------------------------------------|
A#||--0~------12~----------------8~--------5~--|
F ||--0~------12~----------------8~--------5~--|
A#||--0~------12~----------------8~------x-5~--|


Guitar 1/2:
C ||------------|
G#||------------|
D#||------------|
A#||------------|
F ||--x-x-/12\--|
A#||--x-x-/12\--|



Guitar 1:
C ||------------------------------------------------------------------------------------------|
G#||------------------------------------------------------------------------------------------|
D#||--14-14-14-14-14-14-14-10-10-10-10-10-10-10-10-10-15-15-15-15-15-15-15-7-7-7-7-7-7-7-7-7--|
A#||--x--x--x--x--x--x--x--x--x--x--x--x--x--x--x--x--x--x--x--x--x--x--x--x-x-x-x-x-x-x-x-x--|
F ||--12-12-12-12-12-12-12-8--8--8--8--8--8--8--8--8--13-13-13-13-13-13-13-5-5-5-5-5-5-5-5-5--|
A#||------------------------------------------------------------------------------------------|


C ||------------------------------------------------------------------------|
G#||------------------------------------------------------------------------|
D#||--14-14-14-14-14-14-14-10-10-10-10-10-10-10-10-10-15-15-15-15-15-15-15--|
A#||--x--x--x--x--x--x--x--x--x--x--x--x--x--x--x--x--x--x--x--x--x--x--x---|
F ||--12-12-12-12-12-12-12-8--8--8--8--8--8--8--8--8--13-13-13-13-13-13-13--|
A#||------------------------------------------------------------------------|


C ||------------------------------|
G#||------------------------------|
D#||--19-19-19-19-19-19-19-19-19--|
A#||--x--x--x--x--x--x--x--x--x---|
F ||--17-17-17-17-17-17-17-17-17--|
A#||------------------------------|


Guitar 2:
C ||-------------------------------------------------------------------|
G#||-------------------------------------------------------------------|
D#||-------------------------------------------------------------------|
A#||--0-0-0-0-0-0-0-3-3-3-3-3-3-3-3-3-8-8-8-8-8-8-8-5-5-5-5-5-5-5-5-5--| x2
F ||--0-0-0-0-0-0-0-3-3-3-3-3-3-3-3-3-8-8-8-8-8-8-8-5-5-5-5-5-5-5-5-5--|
A#||--0-0-0-0-0-0-0-3-3-3-3-3-3-3-3-3-8-8-8-8-8-8-8-5-5-5-5-5-5-5-5-5--|



Chorus
Guitar 1:
C ||--------------------------------------------------|
G#||-----15-------------------13-13-------------------|
D#||--12----14-15---15-15-15--------15-14---15-14-----|
A#||----------------------------------------------15--|
F ||--------------------------------------------------|
A#||--------------------------------------------------|


C ||---------------------------------------------------|
G#||-----15--------------------------------------------|
D#||--12----14-15---15-15-15--14----12-12-12-12-14-14--|
A#||-----------------------------15--------------------|
F ||---------------------------------------------------|
A#||---------------------------------------------------|


C ||--------------------------------------------------|
G#||-----15-------------------13-13-------------------|
D#||--12----14-15---15-15-15--------15-14---15-14-----|
A#||----------------------------------------------15--|
F ||--------------------------------------------------|
A#||--------------------------------------------------|


C ||-------------------------------------|
G#||-----15-------------------15~--------|
D#||--12----14-15---15-15-15--17~-b-19~--|
A#||-------------------------------------|
F ||-------------------------------------|
A#||-------------------------------------|


Guitar 2:
C ||-----------------------------------------------------------------------------------|
G#||-----------------------------------------------------------------------------------|
D#||--8-8-8-8-8-8-8-8-10-10-10-10-10-10-10-10-12-12-12-12-12-12-12-12-7-7-7-7-7-7-7-7--|
A#||--8-8-8-8-8-8-8-8-10-10-10-10-10-10-10-10-12-12-12-12-12-12-12-12-7-7-7-7-7-7-7-7--|
F ||--6-6-6-6-6-6-6-6-8--8--8--8--8--8--8--8--10-10-10-10-10-10-10-10-5-5-5-5-5-5-5-5--|
A#||-----------------------------------------------------------------------------------|


C ||--------------------------------------------------------------------------------------|
G#||--------------------------------------------------------------------------------------|
D#||--8-8-8-8-8-8-8-8-10-10-10-10-10-10-10-10-12-12-12-12-12-12-12-12-7-7-7-7-7-7---------|
A#||--8-8-8-8-8-8-8-8-10-10-10-10-10-10-10-10-12-12-12-12-12-12-12-12-7-7-7-7-7-7-//12\\--|
F ||--6-6-6-6-6-6-6-6-8--8--8--8--8--8--8--8--10-10-10-10-10-10-10-10-5-5-5-5-5-5-//12\\--|
A#||------------------------------------------------------------------------------//12\\--|



Guitar 1:
C ||---------------------------------------------------|
G#||---------------------------------------------------|
D#||--12-12-12-14-14-14-15-15----------14-14-14-15-15--|
A#||--------------------------15-15-15-----------------|
F ||---------------------------------------------------|
A#||---------------------------------------------------|


C ||---------------------------------------------------|
G#||--------------------------15-15-15-13-13-13--------|
D#||--12-12-12-14-14-14-15-15-------------------15-15--|
A#||---------------------------------------------------|
F ||---------------------------------------------------|
A#||---------------------------------------------------|


C ||---------------------------------------------------|
G#||---------------------------------------------------|
D#||--12-12-12-14-14-14-15-15----------14-14-14-15-15--|
A#||--------------------------15-15-15-----------------|
F ||---------------------------------------------------|
A#||---------------------------------------------------|


C ||--------------------------------------|
G#||---------------------------15~--------|
D#||--12-12-12-14-14-14-15-15--17~-b-19~--|
A#||--------------------------------------|
F ||--------------------------------------|
A#||--------------------------------------|


Guitar 2:
C ||-------------------------------------------------------------------|
G#||-------------------------------------------------------------------|
D#||-------------------------------------------------------------------|
A#||--1-1-1-1-1-1-1-1-3-3-3-3-3-3-3-3-5-5-5-5-5-5-5-5-0-0-0-0-0-0-0-0--| x2
F ||--1-1-1-1-1-1-1-1-3-3-3-3-3-3-3-3-5-5-5-5-5-5-5-5-0-0-0-0-0-0-0-0--|
A#||--1-1-1-1-1-1-1-1-3-3-3-3-3-3-3-3-5-5-5-5-5-5-5-5-0-0-0-0-0-0-0-0--|



Outro
Guitar 1/2:
C ||--------------|
G#||--------------|
D#||--(feedback)--|
A#||--------------|
F ||--------------|
A#||--------------|


C ||----------------------------------------------|----------------------------------------|
G#||----------------------------------------------|----------------------------------------|
D#||----------------------------------------------|----------------------------------------|
A#||--0-----0-----0-----0--------0---0---0----1~--|--0-----0-----0-----0--------0---0---0--|
F ||--0-----0-----0-----0--------0---0---0----1~--|--0-----0-----0-----0--------0---0---0--|
A#||--0-----0--0000-----0--------0---0---0----1~--|--0-----0--0000-----0--------0---0---0--|
               ...                                            ...


C ||----------------------------------------------|----------------------------------------|
G#||----------------------------------------------|----------------------------------------|
D#||----------------------------------------------|----------------------------------------|
A#||--0-----0-----0-----0--------0---0---0----1~--|--0-----0-----0-----0--------0---0---0--|
F ||--0-----0-----0-----0--------0---0---0----1~--|--0-----0-----0-----0--------0---0---0--|
A#||--0-----0--0000-----0--------0---0---0----1~--|--0-----0--0000-----0--------0---0---0--|
               ...                                            ...





____________________________________________________________________________________________________

                                       T14.   DEPARTURES
____________________________________________________________________________________________________





Tuning: Drop A# (A# F A# D# G C)


Guitar 1:
C ||-------|
G ||-------|
D#||-------|
A#||--3~---|
F ||--3~---|
A#||--3~---|


Guitar 1:
C ||------------------------------------------------|
G ||------------------------------------------------|
D#||--5~------------3~------------------------------|
A#||--5~------------3~------------3~------------0~--| x3
F ||--3~------------1~------------3~------------0~--|
A#||------------------------------3~------------0~--|


C ||--------------------|
G ||--------------------|
D#||--5~------------3~--|
A#||--5~------------3~--|
F ||--3~------------1~--|
A#||--------------------|


C ||----------------------------------|------|------|
G ||----------------------------------|------|------|
D#||--6~------------5~----------------|--3~--|------|
A#||--6~------------5~------------3~--|--3~--|--0~--| x2
F ||--4~------------3~------------3~--|--1~--|--0~--|
A#||------------------------------3~--|------|--0~--|




Guitar 1:
C ||-----------------------------------------------------------------------|
G ||----------6-----6---------5-----5----------10------10---------3-----3--|
D#||-----------------------------------------------------------------------|
A#||--------7-----7---------5-----5---------10------10----------3-----3----|
F ||--5~--------5-----3~--------3-----8~----------8-------1~--------1------|
A#||-----------------------------------------------------------------------|


C ||-------------------------------------------------------------------|
G ||----------6-----6---------5-----5---------3-----3---------3-----3--|
D#||-------------------------------------------------------------------|
A#||--------7-----7---------5-----5---------3-----3---------3-----3----| x3
F ||--5~--------5-----3~--------3-----1~--------1-----1~--------1------|
A#||-------------------------------------------------------------------|


Guitar 2:
C ||-----------------------------------------------------------------------|
G ||-----------------------------------------------------------------------|
D#||------------------5~--------------10~-----------------3~---------------|
A#||--0~--------------5~--------------10~-----------------3~---------------|
F ||--0~--------------3~--------------8-~-----------------1~---------------|
A#||--0~-------------------------------------------------------------------|


C ||-------------------------------------------------------------------|
G ||-------------------------------------------------------------------|
D#||------------------5~--------------3~--------------3~---------------|
A#||--0~--------------5~--------------3~--------------3~---------------| x3
F ||--0~--------------3~--------------1~--------------1~---------------|
A#||--0~---------------------------------------------------------------|




Guitar 1:
C ||------------------------------------------------------------------------------------|
G ||-----------11-------11----------11-------11----------10------10---------10------10--|
D#||------------------------------------------------------------------------------------|
A#||--------12-------12----------12-------12----------10------10---------10------10-----|
F ||--10~---------10-------10~---------10-------8~----------8-------8~---------8--------|
A#||------------------------------------------------------------------------------------|


C ||------------------------------------------------------|
G ||-----------15-------15----------15--------15---14~~~--|
D#||-----------------------------------------------x------|
A#||--------15-------15----------15--------15------x------|
F ||--13~---------13-------13~----------13---------13~~~--|
A#||------------------------------------------------------|


Guitar 2:
C ||------------------------------------------------------------------------------------|
G ||------------------------------------------------------------------------------------|
D#||------------------------------------------------------------------------------------|
A#||--5~-------------------5~-------------------3~------------------3~------------------|
F ||--5~-------------------5~-------------------3~------------------3~------------------|
A#||--5~-------------------5~-------------------3~------------------3~------------------|


C ||---------------------------|
G ||---------------------------|
D#||--3~-------------------3~--|
A#||--3~-------------------3~--|
F ||--1~-------------------1~--|
A#||---------------------------|



Guitar 1:
C ||------|
G ||--6~--|
D#||--x---|
A#||--7~--|
F ||--5~--|
A#||------|





Tablature Legend
----------------
 h   hammer-on
 p   pull-off
 b   bend
 pb  pre-bend
 r   release bend
 ~   hold / vibrato
 .   palm mute
 /   slide up
 \   slide down
 *   pinch harmonic
 '   natural harmonic
 x   mute note
 T   tap
comments
print report bad tab
4 comments total. Showing first comments.
0 reply
Sam Rulez D00d wrote on February 24 2013, 10:30 am

Seems like there's a few wrong notes in California but other than that, this is awesome. Thanks so much for tabbing the whole album!

0 reply
Joshua Garcia wrote on February 24 2013, 01:29 pm

I think they're just a bunch of complex chords in California, but I'll have a look into it. But yeah, thanks!

0 reply
degenr856 wrote on April 18 2013, 09:28 pm

nice job thanks!

I want to post or [tab]
guest
You may want to rate the tab now too:
select rating
Please do not post tabs as comments. Select "correction" instead!