Oops, an error
Loading. Please wait.

When Broken Is Easily Fixed Bass Tab

ver1
ver1

Album

Whole song

Interactive

More versions @911Tabs.com
1,918 views 3 this week
7 commentsread comments
1 2 3 4 5
excellent!
x 3
Autoscroll
+/-
esc
set tempo
stop
Contributor
Difficulty
intermediate
WARNING: You are trying to view
                                    content from Ultimate-Guitar.com
                                    in an unauthorized application,
                                    which is prohibited.

                                    Please use an official Ultimate
                                    Guitar Tabs application for iPhone,
                                    iPad or Android to access legitimate
                                    chords, guitar, bass, and drum tabs
                                    from Ultimate-Guitar.com database.

                                    Type "ultimate guitar tabs" in Apple
                                    App Store's or Android Market's
                                    search to find the application.
Tuning: Drop D and Standard


Silverstein - When Broken Is Easily Fixed

Tracks:
1.  Smashed Into Pieces
2.  Red Light Pledge (submited by RaiLeff)
3.  Giving Up (submited by espixcore)
4.  November (submited by Ron Curtis)
5.  Last Days Of Summer
6.  Bleeds No More (submited by RaiLeff)
7.  Hear Me Out
8.  The Weak And The Wounded
9.  Wish I Could Forget You (submited by RaiLeff)
10. When Broken Is Easily Fixed
11. Friends In Fall River (submited by RaiLeff)
12. Forever And A Day


I want to thank everyone who submited tabs for
the songs on this album, either I edited them
or they were already good enough and some of
them were already mine, but I just want thank
RaiLeff, Ron Curtis, and espixcore for the tabs
I used/edited. :)



______________________
1. Smashed Into Pieces
______________________


Tuning: Drop D


|-----------------------------------|
|-----------------------------------|
|-----------------------------------|
|-4444444444444444-0000000000000000-|

|-----------------------------------|
|-----------------------------------|
|-----------------------------------|
|-4444444444444444-2222222222222222-|


|-----------------------------------|
|-----------------------------------|
|-----------------------------------|
|-0-00000000000000-4-44444444444444-|
                                       x2
|-----------------------------------|
|-----------------------------------|
|-----------------------------------|
|-0-00000000000000-4-4444442-222222-|


|----------------------------------------------------------------------|
|----------------------------------------------------------------------|
|----------------------------------------------------------------------|
|-4-44444444444444-0-00000000000000-7-77777777777777-6-666666-2-222222-|x2


|-----------------------------------|
|-----------------------------------|
|-----------------------------------|
|-0-00000000000000-4-44444444444444-|
                                       x2
|-----------------------------------|
|-----------------------------------|
|-----------------------------------|
|-0-00000000000000-4-4444442-222222-|


|----------------------------------------------------------------------|
|----------------------------------------------------------------------|
|----------------------------------------------------------------------|
|-4-44444444444444-0-00000000000000-7-77777777777777-6-666666-2-222222-|x2





|-------------------------------|
|-------------------------------|
|-------------------------------|
|-0~------------4~------2~------|x2

|-------------------------------------------------|
|-------------------------------------------------|
|-------------------------------------------------|
|-00-0-00-000-00-0-00-000-44-4-44-444-22-2-22-222-|x2


|---------------------------------------------|
|---------------------------------------------|
|---------------------------------------------|
|--000000-0-0-0-000000-0-0-0--4~------2~------|x4


Pause.


|--------------------------------------|
|--------------------------------------|
|--------------------------------------|
|--44444444-22222222-00000000-22222222-|x4


|----------------------------------------------------------------------|
|----------------------------------------------------------------------|
|----------------------------------------------------------------------|
|-4-44444444444444-0-00000000000000-7-77777777777777-6-666666-2-222222-|x2


|------|
|------|
|------|
|-0~---|


___________________
2. Red Light Pledge
___________________


Tuning: Standard


|----------------------------------|
|----------------------------7-5---|
|-----------------3~------3~-----9-|
|-0~------0~-----------------------|x3


|------------------------------------|
|------------------------------------|
|-----------------3~------3~------3x-|
|-0~------0~-------------------------|


|---------------------------------------------------------|
|-222222-0000xx---------------222222-0000xx---------------|
|---------------3333xx-555555---------------3333xx-555555-|
|---------------------------------------------------------|

|-------------------------------------------------------------------|
|--------222--------222-------------------222-----222---------------|
|-----------------------333333-555555-----------------333333-555555-|
|-000000-----000000-------------------000-----000-------------------|


|---------------------------------------------------------|
|---------------222222-222222-----------------------------|
|-222222-555555---------------222222-555555-333333-333333-|
|---------------------------------------------------------|

|----------------------------------------------|
|---------------222222-222222------------------|
|-222222-555555---------------222222-555555-3~-|
|----------------------------------------------|


|---------------------------------------------------------|
|-222222-0000xx---------------222222-0000xx---------------|
|---------------3333xx-555555---------------3333xx-555555-|
|---------------------------------------------------------|

|-------------------------------------------------------------------|
|--------222--------222-------------------222-----222---------------|
|-----------------------333333-555555-----------------333333-555555-|
|-000000-----000000-------------------000-----000-------------------|


|----|
|----|
|----|
|-0~-|


|----------------------------------|
|----------------------------------|
|----------------------------------|
|--3~------3~------3~------3~------|

|--------------------------------------------------------------------|
|--------------------------------------------------------------------|
|--2~-----2~-----0~-----0~-------------------------------------------|
|------------------------------3~-----3~-----3-3-3-3-3-3-3-3-3-3-3-3-|


*Play the next three bars many times.
|---------------------------------------------------------|
|---------------------------------------------------------|
|-222222-000000---------------222222-000000---------------|
|---------------333333-3333xx---------------333333-3333xx-|

|----------------------------------------------------------------------|
|----------------------------------------------------------------------|
|-22222x---00000x--------------------22222x---00000x-------------------|
|-------------------3333333-3333333--------------------3333333-3333333-|

|-----------------------------------------------------------------|
|-----------------------------------------------------------------|
|-2222222-0000000-----------------2222222-0000000-----------------|
|-----------------3333333-3333333-----------------3333333-3333333-|


|-----|
|-----|
|-----|
|-3~--|


____________
3. Giving Up
____________


Tuning: Standard


|---------------------------------------|
|---------------------------------------|
|-88888-88-88888-88---------------------|
|-------------------55555-55-55555-55---|x4

|----------------------------------|
|----------------------------------|
|-88888-88-88888-88----------------|
|-------------------55555-55-5~----|


|-----------------------------------|
|-----------------------------------|
|-8888888888888888------------------|
|------------------5555555555555555-|x2


|----------------------------------------|
|----------------------------------------|
|----------------------------------------|
|-1-11-1-111-3-33-3-333-5555555555555555-|


|--------------------------|
|--------------------------|
|-8-888---3---0-00---------|
|-------1---1------3-33-33-|x4


|-----------------------------------|
|-----------------------------------|
|-8888888888888888------------------|
|------------------5555555555555555-|x2


|-------------------------------------------------------|
|-------------------------------------------------------|
|-------------------------------------------------------|
|-1--1--1-1--3--3--3-3--5-5-5-5-5-5-5-5-5-5-5-5-5-5-5-5-|x2


|--------------------------|
|--------------------------|
|-8-888---3---0-00---------|
|-------1---1------3-33-33-|x4


|-------------------------------------|
|-------------------------------------|
|-88888-88-88888-88-------------------|
|-------------------55555-55-55555-55-|x2

|-------------------------------------|
|-------------------------------------|
|-88888-88-88888-88-------------------|
|-------------------55555-55-88888-55-|x2


|------------------------------------|
|------------------------------------|
|-8888888888888888-------------------|
|------------------55555555-33333333-|x4


|--------------------------|
|--------------------------|
|-8-888---3---0-00---------|
|-------1---1------3-33-33-|x4


|--------------------------|
|--------------------------|
|-8------------------------|
|----8--5~-----------------|


___________
4. November
___________


Tuning: Drop D


|-----------------------------|
|-----------------------------|
|-4/6--6-66--4-6-2--2-22--4-2-|
|-----------------------------|x2

|--------------------------|
|--------------------------|
|---------4-6-2--2-22--4-2-|
|-11-1-11------------------|x3

|----------------------------|
|----------------------------|
|----------------------------|
|-11-1-11-1-1-1111111111111x-|


|-----------------------------------------------------------|
|-----------------------------------------------------------|
|-6~------------4~------------6~------9~------4~------------|
|-----------------------------------------------------------|


|---------------------------------------------------------|
|---------------------------------------------------------|
|-6-6666-6-6666-9-9999-9-9999-4-4444-4-4444-4-4444-4-4444-|
|---------------------------------------------------------|x3


|-------------------------------------------------------------------------|
|-------------------------------------------------------------------------|
|-6-6-6-6-6-6-2-2-2-2-2-2-1-1-1-1-1-1-2-2-2-4-4-4-6-6-6-6-6-6-2-2-2-2-2-2-|
|-------------------------------------------------------------------------|
                            \ 
|-------------------------|  x2
|-------------------------| /
|-------------------------|/
|-4-4-4-4-4-4-4-4-4-3-3-3-|


Pause.

|---------------------------------|
|---------------------------------|
|-4x------4-4-4-4-4-4-4-4-4-4-4-4-|
|---------------------------------|

|-------------------------------------------------|
|-------------------------------------------------|
|-6-6-6-6-6-6-9-9-9-9-9-9-4-4-4-4-4-4-4-4-4-4-4-4-|
|-------------------------------------------------|x3


|-------------------------------------------------------------------------|
|-------------------------------------------------------------------------|
|-6-6-6-6-6-6-2-2-2-2-2-2-1-1-1-1-1-1-2-2-2-4-4-4-6-6-6-6-6-6-2-2-2-2-2-2-|
|-------------------------------------------------------------------------|
                             \ 
|-------------------------|  x3
|-------------------------| /
|-------------------------|/
|-4-4-4-4-4-4-4-4-4-3-3-3-|


Pause


|--------------------------------------------------------------------|
|--------------------------------------------------------------------|
|-6666x----22222222-11111111-44442-4--6666x----22222222--------------|
|-------------------------------------------------------4-444-4-468-8|x2


|-------------------------------------|
|-------------------------------------|
|-------------------------------------|
|-1-1-11--9-9-99--8-8-88--9-8-6-4-1-4-|
                                           x2
|---------------------------------------|
|---------------------------------------|
|---------------------------------------|
|-1-1-11--9-9-99--4-4-44--9\8-4-9\8-4-6-|


|--------------------------------|
|--------------------------------|
|--------------------------------|
|-1-1-11--9-9-99--8-8-88-8-8--6--|

|-------------------------------|
|-------------------------------|
|-------------------------------|
|-1-1-11--9-9-99--4-4-44--4-4-3-|

|--------------------------------|
|--------------------------------|
|--------------------------------|
|-1-1-11--9-9-99--8-8-88-8-8--6--|

|---------------------------|
|---------------------------|
|---------------------------|
|-1-1-11--9-9-99--4-4-44--4-|

|----------------|
|----------------|
|-10-9-7-5-2-5-7-|
|----------------|


______________________
5. Last Days Of Summer
______________________


Tuning: Standard


|----------------------------|
|----------------------------|
|----------------------------|
|-5~-----5-5~-----0~----0-0~-|x4


|-------------------------------|
|-------------------------------|
|-7~----7-9~-10~--3~----3-3~-5~-|
|-------------------------------|x4


|---------------------------------------------------------|
|---------------5-5555-5-5555-5-5555----------------------|
|-7-7777-9-9999----------------------5-5555-7-7777-9-9999-|
|---------------------------------------------------------|

|----------------------------------------|
|---------------5-5555-7-7777-5~----5-5~-|
|-7-7777-9-9999--------------------------|
|----------------------------------------|


|-------------------------------|
|-------------------------------|
|-7~----7-9~-10~--3~----3-3~-5~-|
|-------------------------------|x4


|---------------------------------------------------------|
|---------------5-5555-5-5555-5-5555----------------------|
|-7-7777-9-9999----------------------5-5555-7-7777-9-9999-|
|---------------------------------------------------------|

|----------------------------------------|
|---------------5-5555-7-7777-5~----5-5~-|
|-7-7777-9-9999--------------------------|
|----------------------------------------|


|----------------------|
|----------------------|
|-3---33----3---33-333-|
|----------------------|

|---------------------------------------|
|---------------------------------------|
|-777777x-555555x---3---33---3---33-333-|
|---------------------------------------|x3

|----------------------|
|----------------------|
|-3---33----3---33-333-|
|----------------------|


|-----------------------------------------|
|-----------------------------------------|
|----------------------33x------33x---55x-|
|-00x------00x---00x----------------------|x6

|-----------------------------------------|
|-----------------------------------------| 
|-777777777777777777777777--3----3----333-|
|-----------------------------------------|x4

|---------------------------------------------------|
|---------------------------------------------------|
|-777777777777777777777777-333333333333333333333333-|
|---------------------------------------------------|
                                                       x3
|--------------------------|---------------------|
|--------------------------|---------------------|
|-777777777777777777777777-|-3---333--3--33--555-|
|--------------------------|---------------------|
                           ^on the 3rd time stop here and go to the outro


|-------------------|
|-------------------|
|-3--333--3--33-333-|
|-------------------|x2

|-------------------|
|-------------------|
|-7~~---------------|
|-------------------|


_________________
6. Bleeds No More
_________________


Tuning: Drop D



|-------------------------------------------------------------------------|
|------8h10--------------------------------8h10---------------------------|
|-----------3-333333----------------------------3-333333------------------|
|-0-00---------------8-888888-8-7-5-7-0-00---------------8-888888-8-7-5-7-|x2


|-------------------------------------------------------------------------|
|-------------------------------------------------------------------------|
|-------------------11111111-11111111-------------------------------------|
|-00000000-00000000-------------------33333333-33333333-22222222-22222222-|

|-------------------------------------------------------------------------|
|-------------------------------------------------------------------------|
|-------------------11111111-11111111-------------------00000000-00000000-|
|-00000000-00000000-------------------33333333-33333333-------------------|


|-------------------------------------------------------------------------|
|------8h10--------------------------------8h10---------------------------|
|-----------3-333333----------------------------3-333333------------------|
|-0-00---------------8-888888-8-7-5-7-0-00---------------8-888888-8-7-5-7-|x2


|-------------------------------------------------------------------------|
|-------------------------------------------------------------------------|
|-11111111-11111111-11111111-11111111-------------------------------------|
|-------------------------------------00000000-00000000-00000000-00000000-|

|-------------------------------------------------------------------------|
|-------------------------------------------------------------------------|
|-11111111-11111111-11111111-11111111-33333333-33333333-00000000-00000000-|
|-------------------------------------------------------------------------|


|-------------------------------------------------------------------------|
|------8h10--------------------------------8h10---------------------------|
|-----------3-333333----------------------------3-333333------------------|
|-0-00---------------8-888888-8-7-5-7-0-00---------------8-888888-8-7-5-7-|x2


|-----|
|-----|
|-----|
|-0~--|


|------------------------------------------------------------|
|------------------------------------------------------------|
|--------------------1~--------1~--------0~--------0~--------|
|-0~--------0~-----------------------------------------------|


|-------------------------------------------------------------------------|
|-------------------------------------------------------------------------|
|-11111111-11111111-11111111-11111111-------------------------------------|
|-------------------------------------00000000-00000000-00000000-00000000-|

|-------------------------------------------------------------------------|
|-------------------------------------------------------------------------|
|-11111111-11111111-11111111-11111111-33333333-33333333-00000000-00000000-|
|-------------------------------------------------------------------------|


|-------------------------------------------------------------------------|
|------8h10--------------------------------8h10---------------------------|
|-----------3-333333----------------------------3-333333------------------|
|-0-00---------------8-888888-8-7-5-7-0-00---------------8-888888-8-7-5-7-|x2


|-----|
|-----|
|-----|
|-0~--|


______________
7. Hear Me Out
______________


Tuning: Standard


|---------------------|
|---------------------|
|---------------------|
|-7~---------5~----3~-|x4


|------------------------------------|
|------------------------------------|
|------------------------------------|
|-7777777777777777-55555555-33333333-|x4


|----------------------|
|----------------------|
|------55--------------|
|-77--------33-33-3333-|x3

|------------|
|------------|
|-----5------|
|-7-------3~-| 


|------------------------------------|
|------------------------------------|
|------------------------------------|
|-7777777777777777-55555555-33333333-|x4


|----------------------|
|----------------------|
|------55--------------|
|-77--------33-33-3333-|x3

|------------|
|------------|
|-----5------|
|-7-------3~-| 


|-----------------------------------------|
|-----------------------------------------|
|-5555555555555555-4444444444444444-------|
|-----------------------------------3333x-|

|----------------------------|
|----------------------------|
|----------------------------|
|-33333333-77777777-55555555-|

|-----------------------------------------|
|-----------------------------------------|
|-5555555555555555-4444444444444444-------|
|-----------------------------------3333x-|

|--------------------------|
|--------------------------|
|--------------------------|
|-33333333-33-33-33-33-223-|

|-----------------------------------------|
|-----------------------------------------|
|-5555555555555555-4444444444444444-------|
|-----------------------------------3333x-| 
                                             x2
|----------------------------|                
|----------------------------|                
|----------------------------|
|-33333333-77777777-55555555-|


|----------------------|
|----------------------|
|----------------------|
|-7~----7~----3~----5~-|x4


|-------------------------------------------------|
|-------------------------------------------------|
|-------------------------------------------------|
|-7777x-----7777x----------3333x-----5555x--3355x-|x4


|----------------------|
|----------------------|
|------55--------------|
|-77--------33-33-3333-|x3

|--------------|
|--------------|
|-----5--------|
|-7-------3~---|


___________________________
8. The Weak And The Wounded
___________________________


Tuning: Drop D


|---------------------------------|
|---------------------------------|
|---------------------------------|
|-7-7777-7-7777-7-7777-7-7777-15~-|

|-----------------------------------------------------------|
|-----------------------------------------------------------|
|-----------------------------------------------------------|
|-7-7777-7-7777-7-7777-7-7777-15~-(14)-15-16-15-14-15-14-15-|

|---------------------------------|
|---------------------------------|
|---------------------------------|
|-7-7777-7-7777-7-7777-7-7777-15~-|x2


|-------------------------------------------|
|-------------------------------------------|
|-------------------------------------------|
|-77x-------777x-------33x-------333x-------|x4


|---------------------------------|
|---------------------------------|
|---------------------------------|
|-7-7-7-7-7-7-7-7-5-5-5-3-3-3-3-3-|x3

|--------------------|
|--------------------|
|--------------------|
|-7--5--3~--3--5--7~-|


|-----------------------------------|
|-----------------------------------|
|-----------------------------------|
|-7777777777777777-3333333333333333-|x4


|---------------------------------|
|---------------------------------|
|---------------------------------|
|-7-7-7-7-7-7-7-7-5-5-5-3-3-3-3-3-|x3

|--------------------|
|--------------------|
|--------------------|
|-7--5--3~--3--5--7~-|


|------------------------------------|
|------------------------------------|
|------------------------------------|
|-77777777-55555555-3333333333333333-|x3

|----------------------------|
|----------------------------|
|----------------------------|
|-77777777-55555555-3--3--3~-|

|------------------------------------|
|------------------------------------|
|------------------------------------|
|-77777777-55555555-3333333333333333-|

|----------------------------|
|----------------------------|
|----------------------------|
|-77777777-55555555-3--3--3~-|


|-----------|
|-----------|
|-----------|
|-3--3--3~~-|


__________________________
9. Wish I Could Forget You
__________________________


Tuning: Standard


|----------------|
|----------------|
|-3~------2~-----|
|----------------|


|-------------------------|
|-------------------------| 
|-333333-333333-222222-2x-|
|-------------------------|x2


|---------------------------------|
|---------------------------------| 
|-33333333-22222222x--------------|
|---------------------------------|x4


|-------------------------------------------|
|------------------------------------2x-----|
|-3333-2222-5555-2222-3333-2222-5555----222-|
|-------------------------------------------|x2


|---------------------------------------------------------|
|---------------------------------------------------------|
|-333333-222222-555555-222222-333333-222222-555555-777777-|
|---------------------------------------------------------|x2


|----------------------------------------------------------|
|--------------------------------------------------2x------|
|-333333-222222-555555-222222-333333-222222-555555----2222-|
|----------------------------------------------------------|x2


|-------------------------------------------|
|------------------------------------2x-----|
|-3333-2222-5555-2222-3333-2222-5555----222-|
|-------------------------------------------|x2


|-----------------------------|
|-----------------------------|
|----------------------555555-|
|-555555-555555-333333--------|

|--------------|
|--------------|
|--------------|
|-5~-----------|


_______________________________
10. When Broken Is Easily Fixed
_______________________________


Tuning: Drop D


|---------------------------------------------------------------|
|---------------------------------------------------------------|
|---------------------------------------------------------------|
|-0-0--0-0--3-2-0--0-0--0-0--3-2-5--3-3333-3-3333-2-2222-5-5555-|x2

|---------------------------------------------------------------|
|---------------------------------------------------------------|
|---------------------------------------------------------------|
|-0-0--0-0--2-3-2--0-0--0-0--2-3-2--0-0000-0-0000-3-3333-3-3333-|x2


|-----------------------------------|___
|-----------------------------------|   \
|-1111111111111111-3333333333333333-|    \
|-----------------------------------|     x3
                                         /
|------------------------------------------------------------|
|------------------------------------------------------------|
|------------------------------------------------------------|
|-0-0-0-0--0-0-0--0-0-0--0-0-0--0-0-0--0-0-0--0-0-0--0-0-0-0-|


|---------------------------|
|---------------------------|
|-1--1--1--1~----3--3--3~---|
|---------------------------|


|---------------------------------------------------------------|
|---------------------------------------------------------------|
|---------------------------------------------------------------|
|-0-0--0-0--3-2-0--0-0--0-0--3-2-5--3-3333-3-3333-2-2222-5-5555-|x2

|---------------------------------------------------------------|
|---------------------------------------------------------------|
|---------------------------------------------------------------|
|-0-0--0-0--2-3-2--0-0--0-0--2-3-2--0-0000-0-0000-3-3333-3-3333-|x2


|-----------------------------------|___
|-----------------------------------|   \
|-1111111111111111-3333333333333333-|    \
|-----------------------------------|     x3
                                         /
|------------------------------------------------------------|
|------------------------------------------------------------|
|------------------------------------------------------------|
|-0-0-0-0--0-0-0--0-0-0--0-0-0--0-0-0--0-0-0--0-0-0--0-0-0-0-|


|----------------------------------------|
|----------------------------------------|
|-1--1--1--1~----3--3--3~----------------|
|---------------------------0~--------0x-|


Pause.


|-------------------------------------------------|
|-------------------------------------------------|
|-------------------------------------------------|
|-00-0-00-000-00-0-00-000-55-5-55-555-33-3-33-333-|x4

|-------------------------|
|-------------------------|
|-------------------------|
|-5-5-5-5-5-5-5-5-5-5-5-5-|


|--------------------------------|
|--------------------------------|
|--------------------------------|
|-0~------2--3~-----5---3----/5x-|
                                          x4
|--------------------------------------|
|--------------------------------------|
|-------------------1-11-1-11-1-11-----|
|-0~------2--3~--------------------5---|


|-----------------------------------|
|-----------------------------------|
|-1-11-1-11-1-11-1-11-1-11-1-11-----|
|-------------------------------0~--|


_________________________
11. Friends In Fall River
_________________________


Tuning: Standard


|-------------------------------------------|
|-------------------------------------------|
|-2~---22222222-44444444-000000000-22222222-|
|-------------------------------------------|

|-------------------------------------|
|-------------------------------------|
|-22222222-44444444-00000000-22222222-|
|-------------------------------------|


|---------------------------------|
|---------------------------------|
|-22x-00x-44x-00x-2-0-22x-00x-44x-|
|---------------------------------|x4


|-------------------------------------------------------------------------|
|-------------------------------------------------------------------------|
|-22222222-22222222-44444444-44444444-------------------00000000-00000000-|
|-------------------------------------44444444-44444444-------------------|x2


|-------------------------------------------------------------------------|
|-------------------------------------------------------------------------|
|-22x-00x-44x-00x-2-0-22x-00x-44x---------22x-00x-44x-00x-2-0-22x-00x-44x-|
|-------------------------------------------------------------------------|


|-------------------------------------------------------------------------|
|-------------------------------------------------------------------------|
|-22x-00x-44x-00x-2-0-22x-00x-44x---------22x-00x-44x-00x-2-0-22x-00x-44~-|
|---------------------------------000-000---------------------------------|


|-------------------------------------------------------------------------|
|-------------------------------------------------------------------------|
|-22222222-00000000-44444444-22222222-22222222-00000000-44444444-22222222-|
|-------------------------------------------------------------------------|x2


|-------------------------------------------------------------------------|
|-------------------------------------------------------------------------|
|-22x-00x-44x-00x-2-0-22x-00x-44x---------22x-00x-44x-00x-2-0-22x-00x-44x-|
|-------------------------------------------------------------------------|


|-------------------------------------------------------------------------|
|-------------------------------------------------------------------------|
|-22x-00x-44x-00x-2-0-22x-00x-44x---------22x-00x-44x-00x-2-0-22x-00x-----|
|---------------------------------000-000-----------------------------00~-|


|-------------------------------------------------------------------------|
|-------------------------------------------------------22222422-11111211-|
|-44444444-44444444-------------------------------------------------------|
|-------------------44444444-44444444-55544455-54445555-------------------|x2


|-------------------------------------------------------------------------|
|---------------111-22222222-22222222-------------------------------------|
|-44444444-44444----------------------------------------------------------|
|-------------------------------------55555555-55555555-44444444-44444444-|


|--------------------------------------------------------------------|
|-------------------------------------------------------2~------1~---|
|-44444444-44444444-----------------------------------------4~-------|
|-------------------44444444-44444444-55544455-54445555--------------|


_____________________
12. Forever And A Day
_____________________


Tuning: Standard


|-------------------------------------------------|
|-------------------------------------------------|
|-------------------------------------------------|
|-5-5-55-5555-7-7-77-7777-5-5-55-5555-3-3-33-3333-|x2


|-------------------------------------------------|
|-------------------------------------------------|
|-------------------------------------------------|
|-5-5-55-5555-7-7-77-7777-5-5-55-5555-3-3-33-3333-|x2


|---------------------------------------------|
|---------------------------------------------|
|---------------------------------------------|
|-55555555x-77777777x-5-5-55-5555-3-3-33-3333-|x4


|-------------------------------------------------|
|-------------------------------------------------|
|-------------------------------------------------|
|-5-5-55-5555-7-7-77-7777-5-5-55-5555-3-3-33-3333-|x4


|---------------------------------------------|
|---------------------------------------------|
|---------------------------------------------|
|-55555555x-77777777x-5-5-55-5555-3-3-33-3333-|x4


|------------------------------------------------------------|
|------------------------------------------------------------|
|------------------------------------------------------------|
|-7-7-77-77x------7-7-77-77x------5-5-55-55x------3-3-33-33x-|


|-------------------------------------------------|
|-------------------------------------------------|
|-------------------------------------------------|
|-5-5-55-5555-5-5-55-5555-7-7-77-7777-7-7-77-7777-|
                                                    x2
|-------------------------------------------------|
|-------------------------------------------------|
|-------------------------------------------------|
|-8-8-88-8888-8-8-88-8888-3-3-33-3333-3-3-33-3333-|

|-------------------------------------------------------------------|
|-------------------------------------------------------------------|
|-------------------------------------------------------------------|
|-55555555555555555555555555555555-88888888888888888888888888888888-|x2

|----------------------------------------------------------|
|----------------------------------------------------------|
|----------------------------------------------------------|
|-5555x-5555x-5555x-5555x-88888888888888888888888888888888-|x2


|---------------------------------------------|
|---------------------------------------------|
|---------------------------------------------|
|-5-5-55-5555-5-5-55-5555-7-7-77-7777-7-7-77x-|
                                                     x4
|-------------------------------------------------|
|-------------------------------------------------|
|-------------------------------------------------|
|-8-8-88-8888-8-8-88-8888-5-5-55-5555-3-3-33-3333-|


|--------|
|--------|
|--------|
|-5~~----|

Hope you like it, please rate! :)
comments
We did not receive enough feedback on this tab! Please rate:
print report bad tab
1 2 3 4 5
7 comments total. Showing first comments.
+1 reply
anpsb wrote on August 2 2007, 01:34 pm

The Whole Cd, dude your nuts. I think I love you

0 reply
carrotcake wrote on August 2 2007, 02:21 pm

I love you too...I'm kidding, are you gonna rate? :)

0 reply
RaiLeff wrote on August 6 2007, 05:37 pm

Awesome man you rock
Its perfect and stuff
Clearly you take time and care for these things
Just as I do
haha

(Grr I wanted to submit this album haha)

hey on the ppl you thank, Am I included ? :D HAHA
Cheers

I want to post or [tab]
guest
You may want to rate the tab now too:
select rating
Please do not post tabs as comments. Select "correction" instead!