Oops, an error
Loading. Please wait.

When Broken Is Easily Fixed Tab

ver1
ver1

Whole song

Interactive

More versions @911Tabs.com
3,953 views 3 this week
2 commentsread comments
1 2 3 4 5
accurate
x 3
Autoscroll
+/-
esc
set tempo
stop
Hey! There's an official Ultimate Guitar app which is ideal
for learning songs when you're away from computer. Get the app
WARNING: You are trying to view
                                    content from Ultimate-Guitar.com
                                    in an unauthorized application,
                                    which is prohibited.

                                    Please use an official Ultimate
                                    Guitar Tabs application for iPhone,
                                    iPad or Android to access legitimate
                                    chords, guitar, bass, and drum tabs
                                    from Ultimate-Guitar.com database.

                                    Type "ultimate guitar tabs" in Apple
                                    App Store's or Android Market's
                                    search to find the application.
----------------------------------------------------------
                When broken is easily fixed - Silverstein
----------------------------------------------------------

Tabbed By: Mark Tranovich(Tranovich7@Hotmail.com)

..GSP.. = Gradualy Stop Palm muting
....... = Palm mute
   h    = hammer on
   p    = pull off
   \    = slide down


Guitar 1
e|--------------------------------------------------------------|
B|--------------------------------------------------------------|
G|----------------------------------------101010101010999111111-|
D|-3p2-0000-----------3p2-0000----------------------------------|
A|-3p2-0000-88-77-55--3p2-0000-88-77-1010-8-8-8-8-8-8-7779-9-9--|
D|-3p2-0000-----------3p2-0000----------------------------------|
       ..                 ..                                    |
Cont.                                                           |
e|--------------------------------------------------------------|
B|--------------------------------------------------------------|
G|----------------------------------------101010101010999111111-|
D|-3p2-0000-----------3p2-0000----------------------------------|
A|-3p2-0000-88-77-55--3p2-0000-88-77-1010-8-8-8-8-8-8-7779-9-9--|
D|-3p2-0000-----------3p2-0000----------------------------------|
       ..                 ..                                    |
Guitar 2                                                        |
e|--------------------------------------------------------------|
B|--------------------------------------------------------------|
G|--------------------------------------------------------------|
D|-3p2-0000-33-22-00--3p2-0000-33-22-55---33333333333-222-555---|
A|-3p2-0000-33-22-00--3p2-0000-33-22-55---33333333333-222-555---|
D|-3p2-0000-33-22-00--3p2-0000-33-22-55---33333333333-222-555---|
       ..                 ..                                    |
Cont.                                                           |
e|--------------------------------------------------------------|
B|--------------------------------------------------------------|
G|--------------------------------------------------------------|
D|-3p2-0000-33-22-00--3p2-0000-33-22-55---33333333333-222-555---|
A|-3p2-0000-33-22-00--3p2-0000-33-22-55---33333333333-222-555---|
D|-3p2-0000-33-22-00--3p2-0000-33-22-55---33333333333-222-555---|
       ..                 ..

Guitar 1
e|--------------------------------------------------|
B|--------------------------------------------------|
G|------111211-------111211----------------10101010-|
D|-0000---------0000--------0-----------------------|
A|-0000-9-109---0000-9-109--0-8p7-0-10p8-0-8-8-8-8--|
D|-0000---------0000--------0-----------------------|
   ....         ....                                |
Cont.                                               |
e|--------------------------------------------------|
B|--------------------------------------------------|
G|------111211-------111211----------------10101212-|
D|-0000---------0000--------0-----------------------|
A|-0000-9-109---0000-9-109--0-8p7-0-10p8-0-8-8-1010-|
D|-0000---------0000--------0-----------------------|
   ....         ....                                |
Guitar 2                                            |
e|--------------------------------------------------|
B|--------------------------------------------------|
G|--------------------------------------------------|
D|-0000--2-3-2--0000--2-3-2-00000000000-33333333333-|
A|-0000--2-3-2--0000--2-3-2-00000000000-33333333333-|
D|-0000--2-3-2--0000--2-3-2-00000000000-33333333333-|
   ....         ....                                |
                                                    |
e|--------------------------------------------------|
B|--------------------------------------------------|
G|--------------------------------------------55555-|
D|-0000--2-3-2--0000--2-3-2-00000000000-33333-55555-|
A|-0000--2-3-2--0000--2-3-2-00000000000-33333-33333-|
D|-0000--2-3-2--0000--2-3-2-00000000000-33333-------|
   ....         ....

Guitar 1
e|----------------------------------------------------------------------------------|
B|----------------------------------------------------------------------------------|
G|----------------------------------------------------------------------------------|
D|-----777-555-333-222-2h3p2-----555-333-222----22-0000-000-000-000-000-000-000-000-|
A|-555-----------------------333-------------33----0000-000-000-000-000-000-000-000-|
D|-------------------------------------------------0000-000-000-000-000-000-000-000-|
   ... ... ... ... ...       ... ... ... ... .. .. .... ... ... ... ... ... ... ... |
Cont.                                                                               |
e|----------------------------------------------------------------------------------|
B|----------------------------------------------------------------------------------|
G|----------------------------------------7-----------------------------------------|
D|-8-7---10-8-0-8-7---10-8-0-7-8-7-0-(X2)---7---10-8-0-8-7---10-8-0-2-3-2-0-(X2)----|
A|-----8------------8-------------------------8------------8------------------------|
D|----------------------------------------------------------------------------------|

right here there is a third guitar and it plays this

Cont.

 Guitar 3
e|------5-8-5-----------5-8-5------------------------------|
B|----6-------8-10-8--6-------8-10-8\----------------------|
G|---------------------------------------------------------|
D|---------------------------------------------------------|
A|---------------------------------------------------------|
D|---------------------------------------------------------|

e|----------------------------------------------------------------------------------|
B|----------------------------------------------------------------------------------|
G|----------------------------------------------------------------------------------|
D|-----777-555-333-222-2h3p2-----555-333-222----22-0000-000-000-000-000-000-000-000-|
A|-555-----------------------333-------------33----0000-000-000-000-000-000-000-000-|
D|-------------------------------------------------0000-000-000-000-000-000-000-000-|
   ... ... ... ... ...       ... ... ... ... .. .. .... ... ... ... ... ... ... ... |
Cont.                                                                               |
e|----------------------------------------------------------------------------------|
B|----------------------------------------------------------------------------------|
G|-3--3--3--3--3~---5---5---5---5~--------------------------------------------------|
D|-3--3--3--3--3~---5---5---5---5~-----------------0~----------------------------0--|
A|-1--1--1--1--1~---3---3---3---3~-----------------0~----------------------------0--|
D|-------------------------------------------------0~----------------------------0--|
                                                                                    |
                                                                                    |
Guitar 2                                                                            |
e|----------------------------------------------------------------------------------|
B|----------------------------------------------------------------------------------|
G|-3333333333333333-5555555555555555------------------------------------------------|
D|-3333333333333333-5555555555555555---------------0000-000-000-000-000-000-000-000-|
A|-1111111111111111-3333333333333333---------------0000-000-000-000-000-000-000-000-|
D|-------------------------------------------------0000-000-000-000-000-000-000-000-|
   .. . .. . ... .  .. . .. . ... .                .... ... ... ... ... ... ... ... |
Cont.                                                                               |
e|----------------------------------------------------------------------------------|
B|----------------------------------------------------------------------------------|
G|-3333333333333333-5555555555555555------------------------------------------------|
D|-3333333333333333-5555555555555555---------------0000-000-000-000-000-000-000-000-|
A|-1111111111111111-3333333333333333---------------0000-000-000-000-000-000-000-000-|
D|-------------------------------------------------0000-000-000-000-000-000-000-000-|
                                                   .... ... ... ... ... ... ... ... |
Cont.                                                                               |
e|----------------------------------------------------------------------------------|
B|----------------------------------------------------------------------------------|
G|-3333333333333333-5555555555555555------------------------------------------------|
D|-3333333333333333-5555555555555555---------------0000-000-000-000-000-000-000-000-|
A|-1111111111111111-3333333333333333---------------0000-000-000-000-000-000-000-000-|
D|-------------------------------------------------0000-000-000-000-000-000-000-000-|
   .. . .. . ... .  .. . .. . ... .                .... ... ... ... ... ... ... ... |
Cont.                                                                               |
e|----------------------------------------------------------------------------------|
B|----------------------------------------------------------------------------------|
G|-3---3---3---3~---5----5----5~----------------------------------------------------|
D|-3---3---3---3~---5----5----5~-------------------0~----------------------------0--|
A|-1---1---1---1~---3----3----3~-------------------0~----------------------------0--|
D|-------------------------------------------------0~----------------------------0--|


Guitar 1
e|--------------------------------------------------------|
B|--------------------------------------------------------|
G|--------------------------------------------------------|
D|--------------------------------------------------------|
A|--------------------------------------------------------|
D|--------------------------------------------------------|
                                                          |
Guitar 2                                                  |
e|--------------------------------------------------------|
B|--------------------------------------------------------|
G|--------------------------------------------------------|
D|--------------------------------------------------------|
A|--------------------------------------------------------|
D|--------------------------------------------------------|

Guitar 1
e|-------1-----------1-----------3-----------0-----|
B|-----3---3-------3---3-------2---2-------2---2---|
G|---2-------2---2-------2---3-------3---3-------3-|
D|-0-----------0-----------0-----------0-----------|
A|-------------------------------------------------|
E|-------------------------------------------------|
                                                   |
Cont.                                              |
e|-------1-----------1-----------3-----------0-----|
B|-----3---3-------3---3-------2---2-------2---2---|
G|---2-------2---2-------2---3-------3---3-------3-|
D|-0-----------0-----------0-----------0-----------|
A|-------------------------------------------------|
E|-------------------------------------------------|
                                                   |
Cont.                                              |
e|-------1-----------1-----------3-----------0-----|
B|-----3---3-------3---3-------2---2-------2---2---|
G|---2-------2---2-------2---3-------3---3-------3-|
D|-0-----------0-----------0-----------0-----------|
A|-------------------------------------------------|
E|-------------------------------------------------|
                                                   |
Cont.                                              |
e|-------1-----------1-----------3-----------0-----|  Right here another guitar comes in
B|-----3---3-------3---3-------2---2-------2---2---|  and plays the same thing but distortred
G|---2-------2---2-------2---3-------3---3-------3-|  and palm muted
D|-0-----------0-----------0-----------0-----------|
A|-------------------------------------------------|
E|-------------------------------------------------|
                                                   |
Cont.                                              |
e|-------1-----------1-----------3-----0-------0---|
B|-----3---3-------3---3-------2---2-----2---------|
G|---2-------2---2-------2---3-------3-----3-----3-|
D|-0-----------0-----------0-----------------------|
A|-------------------------------------------------|
E|-------------------------------------------------|
                                                   |
                                                   |
Guitar 2                                           |
e|-------------------------------------------------|
B|-------------------------------------------------|
G|-------------------------------------------------|
D|-------------------------------------------------|
A|-------------------------------------------------|
D|-------------------------------------------------|
                                                   |
Cont.                                              |
e|-------------------------------------------------|
B|-------------------------------------------------|
G|-------------------------------------------------|
D|-0~----------------------------------------------|
A|-0~----------------------------------------------|
D|-0~----------------------------------------------|
                                                   |
Cont.                                              |
e|-------------------------------------------------|
B|-------------------------------------------------|
G|-------------------------------------------------|
D|-------------------------------------------------|
A|-------------------------------------------------|
D|-------------------------------------------------|
                                                   |
Cont.                                              |
e|-------------------------------------------------|
B|-------------------------------------------------|
G|-------------------------3~----------------------|
D|-0~----------------------3~----------------------|
A|-0~----------------------1~----------------------|
D|-0~----------------------------------------------|
                                                   |
Cont.                                              |
e|-------------------------------------------------|
B|-------------------------------------------------|
G|-------------------------3-3-3-3-3-3-3-3-3-3-3-3-|
D|-0~----------------------3-3-3-3-3-3-3-3-3-3-3-3-|
A|-0~----------------------1-1-1-1-1-1-1-1-1-1-1-1-|
D|-0~----------------------------------------------|
                           .........GSP...........

Guitar 1
e|---------------------------------------------------------------------------------------------|
B|---------------------------------------------------------------------------------------------|
G|------------------3333-5---------------------3333-3333-3333-3-5------------------------------|
D|-0~---2-3~---5~---3333-5-------0--0~---2-3~--3333-3333-3333-3-5------------------------------|
A|-0~---2-3~---5~---1111-3-7h8p7----0~---2-3~--1111-1111-1111-1-3------------------------------|
D|-0~---2-3~---5~-------------------0~---2-3~--------------------------------------------------|
                                                                                         
     |
Cont.                                                                                          |
e|---------------------------------------------------------------------------------------------|
B|---------------------------------------------------------------------------------------------|
G|------------------3333-5---------------------3333-3333-3333-3-5------------------------------|
D|-0~---2-3~---5~---3333-5-------0--0~---2-3~--3333-3333-3333-3-5------------------------------|
A|-0~---2-3~---5~---1111-3-7h8p7----0~---2-3~--1111-1111-1111-1-3------------------------------|
D|-0~---2-3~---5~-------------------0~---2-3~--------------------------------------------------|
                                                                                         
     |
Cont.                                                                                    
     |
e|---------------------------------------------------------------------------------------------|
B|-------------------------5h6p5---------------------------------------------------------------|

G|------------------3333-5-------7-------------3333-3333-3333-3333-333333333333333333333333----|
D|-0~---2-3~---5~---3333-5----------0~---2-3~--3333-3333-3333-3333-333333333333333333333333-0~-|
A|-0~---2-3~---5~---1111-3----------0~---2-3~--1111-1111-1111-1111-111111111111111111111111-0~-|
D|-0~---2-3~---5~-------------------0~---2-3~-----------------------------------------------0~-|
                                                                                         
     |
                                                                                         
     |
Guitar 2                                                                                 
     |
e|---------------------------------------------------------------------------------------------|
B|-------------------------5h6p5---------------------------------------------------------------|
G|------------------3333-5-------7-------------3333-3333-3333-3-5------------------------------|
D|-0~---2-3~---5~---3333-5----------0~---2-3~--3333-3333-3333-3-5------------------------------|
A|-0~---2-3~---5~---1111-3----------0~---2-3~--1111-1111-1111-1-3------------------------------|
D|-0~---2-3~---5~-------------------0~---2-3~--------------------------------------------------|
                                                                                         
     |
Cont.                                                                                    
     |
e|---------------------------------------------------------------------------------------------|
B|-------------------------5h6p5---------------------------------------------------------------|
G|------------------3333-5-------7-------------3333-3333-3333-3-5------------------------------|
D|-0~---2-3~---5~---3333-5----------0~---2-3~--3333-3333-3333-3-5------------------------------|
A|-0~---2-3~---5~---1111-3----------0~---2-3~--1111-1111-1111-1-3------------------------------|
D|-0~---2-3~---5~-------------------0~---2-3~--------------------------------------------------|
                                                                                         
     |
Cont.                                                                                    
     |
e|---------------------------------------------------------------------------------------------|
B|-------------------------5h6p5---------------------------------------------------------------|
G|------------------3333-5-------7-------------3333-3333-3333-3333-333333333333333333335555----|
D|-0~---2-3~---5~---3333-5----------0~---2-3~--3333-3333-3333-3333-333333333333333333335555-0~-|
A|-0~---2-3~---5~---1111-3----------0~---2-3~--1111-1111-1111-1111-111111111111111111113333-0~-|
D|-0~---2-3~---5~-------------------0~---2-3~-----------------------------------------------0~-|

                           Thats It!!!
comments
We did not receive enough feedback on this tab! Please rate:
print report bad tab
1 2 3 4 5
2 comments total.
0 reply
thebearclan wrote on November 28 2008, 09:05 pm

i dont know if its just my tuning, but it seems as if this is all one note too low. plus, the first two notes are wrong, it should be an 8 pull off, not 3p2 then 0. i've worked it out using 1s, but its more difficult, maybe im just confused...

0 reply
thebearclan wrote on December 5 2008, 03:22 am

i've figured it, my guitar was poorly tuned, anyway, your tab is kinda wrong in someplaces, but it did help me a little i guess

I want to post or [tab]
guest
You may want to rate the tab now too:
select rating
Please do not post tabs as comments. Select "correction" instead!