Oops, an error
Loading. Please wait.

When Shadows Beam Bass Tab

430 views 1 this week
7 commentsread comments
1 2 3 4 5
accurate
x 1
add to favorites launch autoscroll
font size
0
reset
Autoscroll
+/-
esc
set tempo
stop
Contributor
WARNING: You are trying to view
                                    content from Ultimate-Guitar.com
                                    in an unauthorized application,
                                    which is prohibited.

                                    Please use an official Ultimate
                                    Guitar Tabs application for iPhone,
                                    iPad or Android to access legitimate
                                    chords, guitar, bass, and drum tabs
                                    from Ultimate-Guitar.com database.

                                    Type "ultimate guitar tabs" in Apple
                                    App Store's or Android Market's
                                    search to find the application.
++++++++++++++++++++++++++++++++++
| Silverstein- When Shadows Beam |
++++++++++++++++++++++++++++++++++

Album: When Shadows Beam (2002)
Tabbed By: RaiLeff

All these tabs are my own ear transcribed
I have not copied this material
from anyone else ;)
Enjoy, RaiLeff

Tuning: EADG and Drop D

Keys:

| x: Mute
| ~: Vibrato (Let Ring)
| /: Slide Up
| \: Slide Down
| h: Hammer On
| p: Pull Off
| ~x: Ring and Mute

Tracks:

1. Red Light Pledge
2. Dawn Of The Fall
3. Wish I Could Forget You
4. Bleeds No More
5. Last Days Of Summer
6. Waiting Four Years

_______________________________

1. Red Light Pledge

Tuning: EADG

Intro
1.
G|----------------------------2-0---|
D|--------------------------------4-|
A|-----------------3~------3~-------|--x2
E|-0~------0~-----------------------|

Verse
"The endings..."
2.
G|----------------------------2-0---|
D|--------------------------------4-|
A|-----------------3~------3~-------|
E|-0~------0~-----------------------|

"Come back to haunt you..."
3.
G|------------------------------------|
D|------------------------------------|
A|-----------------3~------3~------3x-|
E|-0~------0~-------------------------|

Chorus
"I made a mistake..."
4.
G|--------------------------------------------------------------|
D|-222222-0000-xx----------------222222-0000-xx-----------------|
A|----------------3333-xx-555555-----------------3333-xx-555555-|
E|--------------------------------------------------------------|

"I wanted to tell you..."
5.
G|-------------------------------------------------------------------|
D|--------222--------222-------------------222-----222---------------|
A|-----------------------333333-555555-----------------333333-555555-|
E|-000000-----000000-------------------000-----000-------------------|

Chorus Cont
"Promise me you will be there..."
6.
G|---------------------------------------------------------|
D|---------------222222-222222-----------------------------|
A|-222222-555555---------------222222-555555-333333-333333-|
E|---------------------------------------------------------|

7.
G|----------------------------------------------|
D|---------------222222-222222------------------|
A|-222222-555555---------------222222-555555-3~-|
E|----------------------------------------------|

Chorus
"I made a mistake..."
8.
G|--------------------------------------------------------------|
D|-222222-0000-xx----------------222222-0000-xx-----------------|
A|----------------3333-xx-555555-----------------3333-xx-555555-|
E|--------------------------------------------------------------|

"I wanted to tell you..."
9.
G|-------------------------------------------------------------------|
D|--------222--------222-------------------222-----222---------------|
A|-----------------------333333-555555-----------------333333-555555-|
E|-000000-----000000-------------------000-----000-------------------|

Outro
10.
G|----|
D|----|
A|----|
E|-0~-|

Bridge
11.
G|----------------------------------|
D|----------------------------------|
A|----------------------------------|
E|--3~------3~------3~------3~------|

Verse
"I wanted to tell you..."
12.
G|--------------------------------------------------How-do-I------|
D|--------------------------------------------------explain-------|
A|--2~------2~------0~------0~---------------------everything?----|
E|----------------------------------3~------3~------333333-333333-|

Chorus
"Promise me you will be there..."
13.
G|-----------------------------------------------------------|
D|-----------------------------------------------------------| Play for
A|-222222-000000----------------222222-000000----------------| alot of times
E|---------------333333-3333-xx---------------333333-3333-xx-|

14.
G|--------------------------------------------------------------------------|
D|--------------------------------------------------------------------------| Play for
A|-22222x----00000x---------------------22222x----00000x--------------------| alot of
E|---------------------3333333-3333333----------------------3333333-3333333-| times

"Ill wait for you..."
15.
G|-----------------------------------------------------------------|
D|-----------------------------------------------------------------| Play for alot
A|-2222222-0000000-----------------2222222-0000000-----------------| of times
E|-----------------3333333-3333333-----------------3333333-3333333-|

Finish with:
16.
G|-----|
D|-----|
A|-----|
E|-3~--|

Lyrics:

The ending's the same,
past mistakes that you made,
come back to haunt you, you.

I made a mistake, I wish I could take,
back everything that I did.
I wanted to tell you, I really did.
But how do I explain this?

Promise me you will be there
Until the red light will change.
I would wait forever.
Promise me you will stay here
Until the darkness will fade,
I'd wait for you, you.

A mistake, wish I could take,
back everything that I did.
I wanted to tell you, I really did.
But how do I explain?

I wanted to tell you, what really happened,
but how do I explain this? How do I explain everything?

I'm the same and I'm all on my own, away.
Wait for you.
I'm the same and I'm all on my own, by myself.
Wait for you.
I'd wait for you... for you
I'd wait for you.

_____________________________________

2. Dawn Of The Fall

Tuning: EADG

Intro.
1.
G|-------------------------------------|
D|-------------------------------------|
A|-5~------------------2~---333333333x-|
E|-------------------------------------|

Verse
"It was yesterday you told me you loved me.."
2.
G|----------------------------------|
D|-----------------2222222-55-55445-|
A|-5555555-4444444------------------|
E|----------------------------------|

3.
G|--------------------------|
D|--------------------------|
A|-555-4444444--------------|
E|-------------00-2-3333333-|

"But today I learned you found someone else.."
4.
G|----------------------------------|
D|-----------------2222222-55-55445-|
A|-5555555-4444444------------------|
E|----------------------------------|

"Was fake.."
5.
G|--------------------------|
D|--------------------------|
A|-555-4444444--------------|
E|-------------00-2-3333333-|

Chorus
"When I get back home I know that you'll be gone.." 
6.
G|----------------------------------------------------------|
D|----------------------------------------------------------|
A|-5555x--4444x----------------5555x--4444x-----------------|--x2
E|---------------0000x--3333x---------------0000x--33x--33x-|

Verse
"And today I found out that you.."
7.
G|----------------------------------|
D|-----------------2222222-55-55445-|
A|-5555555-4444444------------------|
E|----------------------------------|

8.
G|--------------------------|
D|--------------------------|
A|-555-4444444--------------|
E|-------------00-2-3333333-|

"A one bedroom apartment.."
9.
G|----------------------------------|
D|-----------------2222222-55-55445-|
A|-5555555-4444444------------------|
E|----------------------------------|

"First met.."
10.
G|--------------------------|
D|--------------------------|
A|-555-4444444--------------|
E|-------------00-2-3333333-|

Chorus
"When I get back home I know that you'll be gone.." 
11.
G|----------------------------------------------------------|
D|----------------------------------------------------------|
A|-5555x--4444x----------------5555x--4444x-----------------|--x2
E|---------------0000x--3333x---------------0000x--33x--33x-|

Now play verse

1:49
12.
G|----|
D|----|
A|-5~-|
E|----|

"You were there..
With someone else.."

Bridge
"See my pain!!"  - For quite a few times
13.
G|-----------------------------------------|
D|-----------------------------------------|
A|-555555555-222222222---------------------|
E|---------------------333333333-333333333-|

Last Part 3:09
14.
G|-------------------------------------------------------|
D|-------------------------------------------------------|
A|--------------------------5x---------------------------|
E|-333333333333333333333333-----333333333333333333333333-|

15.
G|-----------------------------------------------------------|
D|---------------754--------------754------------------------|
A|--5-555-555-55-----5-555-555-55----------------------------|
E|-----------------------------------33333333333333333333333-|

16.
G|--------------------------------------------------|
D|--------------------------------------------------|
A|-------------------------222222222222222222222222-|
E|-333333333333333333333333-------------------------|

17.
G|--------------------------------------------------|
D|--------------------------------------------------|
A|-000000000000000000000000-------------------------|
E|-------------------------333333333333333333333333-|

18.
G|--------------------|
D|------------754-----|
A|-5~----5-55-----5~x-|
E|--------------------|

Lyrics:

It was yesterday you told me you loved me,
But today I learned you found someone else 
and everything was fake. 
When I get back home I know that you'll be gone. 
And all the things I've given you are left behind; I'll put them in a box. 
And today I found out you moved in with him. 
A one-bedroom apartment down the road 
from the place we first met. 
When I get back home I know that you'll be gone. 
With all the memories of me you had 
locked here in this box.
And I'll start to think of everything we had. 
I was always there for you 
I asked for nothing in return I swear. 
I'll believe, 
you'll make you see.
You were there with someone else. 
See my pain, I'll believe 
you were there with him. 
I don't want to see your face again, not like this. 
I don't have to see you in this place.
I don't want to see your face again. (face again)
I will not be ashamed not now. 
This time I won't be ashamed of it. 
This time I won't make it change myself. 
This time I will make myself believe. 
My heart,
it won't break this time, 
won't be left behind, 
I won't be so shy; I won't let you win this time.

________________________________________________________

3. Wish I Could Forget You

Tuning: EADG

Intro
1.
G|----------------|
D|----------------|
A|-3~--3~--2~--2~-|
E|----------------|

"I know they will miss!"
2.
G|-------------------------|
D|-------------------------| 
A|-333333-333333-222222-2x-|--x4
E|-------------------------|

3.
G|---------------------------------|
D|---------------------------------| 
A|-33333333-22222222---------------|--x4
E|---------------------------------|

Chorus
"Say its gold, say its fine..."
4.
G|-------------------------------------------|
D|------------------------------------2x-----|
A|-3333-2222-5555-2222-3333-2222-5555----222-|--x4
E|-------------------------------------------|

Outro
5.
G|---------------------------------------------------------|
D|---------------------------------------------------------|
A|-333333-222222-555555-222222-333333-222222-555555-777777-|--x2
E|---------------------------------------------------------|

6.
G|----------------------------------------------------------|
D|--------------------------------------------------2x------|
A|-333333-222222-555555-222222-333333-222222-555555----2222-|--x2
E|----------------------------------------------------------|

Chorus
"Say its gold, say its fine..."
7.
G|-------------------------------------------|
D|------------------------------------2x-----|
A|-3333-2222-5555-2222-3333-2222-5555----222-|--x2
E|-------------------------------------------|

8.
G|-----------------------------|
D|-----------------------------|
A|----------------------555555-|
E|-555555-555555-333333--------|

9.
G|--------------|
D|--------------|
A|--------------|
E|-5~-----------|

Lyrics:

You won't repeat this for the rest of the crowd.
I know they will miss but you'll still feel proud.
but you'll still feel proud.
Say it's gold, say it's fine.
The secrets out that you're mine.
Say it's gold, say it's fine.
The secrets out that you're mine.
YEAH!
THAT YOU'RE MINE!
Say it's gold, say it's fine.
The secrets out that you're mine.
The television radiates as the clock ticks on and on and on and on and on.
It's getting too late and it's time to move on.
YEAH!

________________________________________________

4. Bleeds No More

Tuning: Drop D (DADG)

"MY HEART BLEEDS NO MORE!!!"

Intro
1.
G|-----------------------------------------------------------------------|
D|-----------------------------------------------------------------------|
A|----------3-333333-1-111111-1-0---0----------3-333333-1-111111-1-0---0-|--x2
D|-0-000000-----------------------5---0-000000-----------------------5---|

Verse

2.
G|-------------------------------------------------------------------------|
D|-------------------------------------------------------------------------|
A|-------------------11111111-11111111-------------------------------------|
D|-00000000-00000000-------------------33333333-33333333-22222222-22222222-|


3.
G|-------------------------------------------------------------------------|
D|-------------------------------------------------------------------------|
A|-------------------11111111-11111111-------------------00000000-00000000-|
D|-00000000-00000000-------------------33333333-33333333-------------------|

Chorus
"My heart bleeds no more..."
4.
G|-----------------------------------------------------------------------|
D|-----------------------------------------------------------------------|
A|----------3-333333-1-111111-1-0---0----------3-333333-1-111111-1-0---0-|--x2
D|-0-000000-----------------------5---0-000000-----------------------5---|

Bridge
5.
G|-------------------------------------------------------------------------|
D|-------------------------------------------------------------------------|
A|-11111111-11111111-11111111-11111111-------------------------------------|
D|-------------------------------------00000000-00000000-00000000-00000000-|

6.
G|-------------------------------------------------------------------------|
D|-------------------------------------------------------------------------|
A|-11111111-11111111-11111111-11111111-33333333-33333333-00000000-00000000-|
D|-------------------------------------------------------------------------|

Chorus
"My heart bleeds no more..."
7.
G|-----------------------------------------------------------------------|
D|-----------------------------------------------------------------------|
A|----------3-333333-1-111111-1-0---0----------3-333333-1-111111-1-0---0-|--x2
D|-0-000000-----------------------5---0-000000-----------------------5---|

Outro
8.
G|-----|
D|-----|
A|-----|
D|-0~--|

"I wanted to..."
9.
G|------------------------------------------------------------|
D|------------------------------------------------------------|
A|-5~--------5~-------1~--------1~--------0~--------0~--------|
D|------------------------------------------------------------|

"You are the worst thing that ever happened to me..."

Bridge
10.
G|-------------------------------------------------------------------------|
D|-------------------------------------------------------------------------|
A|-11111111-11111111-11111111-11111111-------------------------------------|
D|-------------------------------------00000000-00000000-00000000-00000000-|

11.
G|-------------------------------------------------------------------------|
D|-------------------------------------------------------------------------|
A|-11111111-11111111-11111111-11111111-33333333-33333333-00000000-00000000-|
D|-------------------------------------------------------------------------|

Chorus
"My heart bleeds no more..."
12.
G|-----------------------------------------------------------------------|
D|-----------------------------------------------------------------------|
A|----------3-333333-1-111111-1-0---0----------3-333333-1-111111-1-0---0-|--x2
D|-0-000000-----------------------5---0-000000-----------------------5---|

Outro
13.
G|-----|
D|-----|
A|-----|
D|-0~--|

Lyrics:

My heart bleeds no more;
now, it's been turned to stone.
Your stomach feels sick for someone else.
I've broken both my legs falling for you.
Drag me on the ground.

Powerless I stand, tarnished blade, cutting through, pushed into my vein.
Blood still stains my hands.
Sharpening my sense of pain outside

Killing everything off inside.
Make sense of everything you tried to hide,
hide from me.

I wanted to,
convince myself there's nothing else to do.
I wanted to.
Provide you with proof of what you put me through.
I wanted to.
Pretend that it was you.
"you're the worst thing that's ever happend to me"
"dieee"

____________________________________________________

5. Last Days Of Summer

Tuning: EADG

Intro
1.
G|----------------------------------------------------------|
D|----------------------------------------------------------|
A|-0~----0-0~-------------------0~----0-0~------------------|
D|---------------0~----0-0~-------------------0~----0-0~----|

Verse
"The bright light beams..."
2.
G|----------------------------------------------------------|
D|----------------------------------------------------------|
A|-0~----0-0~-------------------0~----0-0~------------------|
D|---------------0~----0-0~-------------------0~----0-0~----|

Pre-Chorus
"Or a broken heart..."
3.
G|----------------------------------------------------------|
D|-2~----2-2~---------------0~--2~----2-2~---------------0~-|
A|---------------3~----3-3~-------------------3~----3-3~----|--x2
D|----------------------------------------------------------|

Chorus
"I won't leave.."
4.
G|-----------------------------------------|
D|-----------2222-2222-----------2222-4444-|
A|-3333-5555-----------3333-5555-----------|
E|-----------------------------------------|

"I won't leave this way.."
5.
G|------------------------|
D|-----------2222-4444-5~-|
A|-3333-5555--------------|
E|------------------------|

Verse
"As my legs..."
6.
G|----------------------------------------------------------|
D|-2~----2-2~---------------0~--2~----2-2~---------------0~-|
A|---------------3~----3-3~-------------------3~----3-3~----|--x2
D|----------------------------------------------------------|

Chorus
"I won't leave.."
7.
G|-----------------------------------------|
D|-----------2222-2222-----------2222-4444-|
A|-3333-5555-----------3333-5555-----------|
E|-----------------------------------------|

"I won't leave this way.."
8.
G|------------------------|
D|-----------2222-4444-5~-|
A|-3333-5555--------------|
E|------------------------|

Bridge
"You! That I loved..."
9.
G|--------------------|
D|--------------------|
A|-3-3333-3-3333-3-33-|
D|--------------------|

10.
G|----------------------------------------|
D|-22222x----00000x-----------------------|
A|---------------------3-3333-3-3333-3-33-|--x2
D|----------------------------------------|

11.
G|-----------------------------------------------------------|
D|-22222x----00000x------------------------------------------|
A|---------------------3-3333-3-3333-3-33-3-3333-3-3333-3-33-|
D|-----------------------------------------------------------|

12.
G|-------------------------------------------|
D|-------------------------------------------|   
A|----------------------33x----33x----55x----|--x6  
E|-00x----00x----00x-------------------------|

13.
G|--------------------------------|
D|--------------------------------|
A|-------------------3~-33-3~-3-3-|--x4
D|-00000000-00000000--------------|

14.
G|-------------------------------------------------------------------------|
D|-22222222-22222222-------------------22222222-22222222-------------------|
A|-------------------33333333-33335555-------------------33333333-33335555-|--x2
D|-------------------------------------------------------------------------|

15.
G|----------------------------------------------------------------------------|
D|-22222222-22222222-------------------22222222-22222222----------------------|
A|-------------------33333333-33335555-------------------3-333-3~-3-333-3~----|
D|-------------------------------------------------------------------------0~-|

Lyrics:

The bright light beams From her eyes
Like broken glass. Or a broken heart,
Who would have guessed?
You'd leave me here.
Beneath my eyes I feel the tears, I hold back.

I won't leave this way again.

As my legs They start to shake,
I feel nothing. I wanted you, (I wanted you!)
I needed you, But you weren't there for me this time. (There for me!)

You that I loved! That I needed!
You weren't there.Not this time! You!

What can I do?! I was supposed to love you!
What can I say?! 

I won't leave, What can I do?!
I was supposed to help you!
I cannot feel you!

Last breath I feel! Warm air intake!
Last summer's day! Last one I take!
For you!

I won't leave! Leave this way!
I won't leave Lost it all!
All for you! I won't leave.

When the shadows beam! Misery remains!
I won't leave this time.

______________________________________________

6. Waiting Four Years

Tuning: EADG

Verse
"To make you stay.." 
1.
G|-------------------------------------|
D|-------------------------------------|
A|-55555555-44444444/77777777-99999999-|--x3
E|-------------------------------------|

"I asked to see you.."
2.
G|------------------------------------|
D|------------------------------------|
A|-55555555-44444444------------------|
E|-------------------33333333-3333333-|

Chorus
"Everyday!!!"
3.
G|---------------------------------------------------------------------|
D|---------------------------------------------------------------------|
A|-5-5-55-4-444-444------------------2-2-22-0-000-000------------------|
E|------------------3-3-33-3-333-333------------------3-3-33-3-333-333-|

4.
G|------------------------------------------------------------------------|
D|------------------------------------------------------------------------|
A|-5-5-55-4-444-444------------------2-2-22-0-000-000---------------------|
E|------------------3-3-33-3-333-333------------------xx-3-xx-3-xx-3-xx-3-|

"And Im waiting four years..."
5.
G|---------------------------------------------------------------------|
D|---------------------------------------------------------------------|
A|-5-5-55-4-444-444------------------2-2-22-0-000-000------------------|
E|------------------3-3-33-3-333-333------------------3-3-33-3-333-333-|

6.
G|------------------------------------------------------------------------|
D|------------------------------------------------------------------------|
A|-5-5-55-4-444-444------------------2-2-22-0-000-000---------------------|
E|------------------3-3-33-3-333-333------------------xx-3-xx-3-xx-3-xx-3-|

Verse
"Life has passed me by..."
7.
G|-------------------------------------------------------------------------|
D|-------------------------------------------------------------------------|
A|-22222422-22222222-------------------------------------------------------|--x2
E|-------------------33333333-33333333-22222222-22222222-00000000-00000000-|

Pre-Chorus
"More then I'll ever have.." 
8.
G|---------------------------------------------------------------------|
D|---------------------------------------------------------------------|
A|-2-2-242-2222-242----------------------------------------------------|--x2
E|------------------3-3-353-3333-353-2-2-232-2222-232-0-0-000-0000-000-|

"And Im waiting four years..."
9.
G|---------------------------------------------------------------------|
D|---------------------------------------------------------------------|
A|-5-5-55-4-444-444------------------2-2-22-0-000-000------------------|
E|------------------3-3-33-3-333-333------------------3-3-33-3-333-333-|

"Waiting all this time..."
10.
G|------------------------------------------------------------------------|
D|------------------------------------------------------------------------|
A|-5-5-55-4-444-444------------------2-2-22-0-000-000---------------------|
E|------------------3-3-33-3-333-333------------------xx-3-xx-3-xx-3-xx-3-|

Outro
11.
G|-----------------|
D|-----------------|
A|-5~--------------|
E|-----------------|

Bridge
"Can you see me?"
12.
G|----------------------------------|
D|----------------------------------|
A|-55x----55x----55x-44x-55x-44x----|
E|----------------------------------|

"Can you see me?"
13.
G|-------------------------------------|
D|-------------------------------------|
A|-55555555-44444444-55555555-44444444-|--x2
E|-------------------------------------|

"Everyday.." 
14.
G|----------------------------------|
D|----------------------------------|
A|-x-x-555-444444-77777777-99999999-|--x4
E|----------------------------------|

"Everyday.."
16.
G|------------------------------------|
D|------------------------------------|
A|-x-x-x-555-444444-------------------|
E|------------------00000000-22222222-|

17.
G|-----------------|
D|-----------------|
A|-5~--------------|
E|-----------------|

Lyrics:

I gave you everything,
but it just wasn't enough to make you stay. 
You said you'd give me time and space again. 
I asked to see you everyday.

Now I'm waiting four years 
just to feel your touch, 
waiting four whole years to say how much I care.
The flowers I gave you, died, lost and been thrown away, 
just like me. 

Life has passed me by,
reflected in my eye. 
Never again will I have 
you beside me, you to be there. 
The years behind cost 
more than I'll ever have. 

Now I'm waiting four years
just to hear your voice,
 waiting four whole years 
to lie right by your side.
I waited all this time,
just to see your smile. 
I waited all this time 
to say how much I care. 

Can you see me waiting for you everyday?

_______________________
END

Keys:

| x: Mute
| ~: Vibrato (Let Ring)
| /: Slide Up
| \: Slide Down
| h: Hammer On
| p: Pull Off
| ~x: Ring and Mute

+++++++++++++++++++++++++++++++++
| RaiLeff                       |
| Underground__Dora@Hotmail.Com |
+++++++++++++++++++++++++++++++++
comments
We did not receive enough feedback on this tab! Please rate:
1 2 3 4 5
7 comments total. Showing first comments.
0 reply
carrotcake wrote on May 17 2007, 08:09 pm

do you actually have this cd? lol

0 reply
RaiLeff wrote on May 18 2007, 05:49 pm

Actually I do, in my computer :P

0 reply
carrotcake wrote on July 2 2007, 08:30 pm

...and you don't actually write those lyrics down when you submit your tabs you just get them off lyric sites, right? and why do you do that anyway?

I want to post or [tab]
guest
You may want to rate the tab now too:
select rating
Please do not post tabs as comments. Select "correction" instead!