Oops, an error
Loading. Please wait.

With Second Chances Tab

ver1
ver1

Whole song

Interactive

More versions @911Tabs.com
1,027 views 1 this week
2 commentsread comments
1 2 3 4 5
excellent!
x 1
Autoscroll
+/-
esc
set tempo
stop
Contributor
Difficulty
Tuning
intermediate
A# F A# D# G C
Hey! There's an official Ultimate Guitar app which is ideal
for learning songs when you're away from computer. Get the app
WARNING: You are trying to view
                                    content from Ultimate-Guitar.com
                                    in an unauthorized application,
                                    which is prohibited.

                                    Please use an official Ultimate
                                    Guitar Tabs application for iPhone,
                                    iPad or Android to access legitimate
                                    chords, guitar, bass, and drum tabs
                                    from Ultimate-Guitar.com database.

                                    Type "ultimate guitar tabs" in Apple
                                    App Store's or Android Market's
                                    search to find the application.
Tabbed by: Joshua Garcia (joshuag523@aol.com)

Tabs for the song: With Second Chances by Silverstein
Please rate and let me know if you have any corrections. Thank you.


**For my tab of the whole album, go here:
http://tabs.ultimate-guitar.com/s/silverstein
/this_is_how_the_wind_shifts_album_tab.htm **


Tuning: Drop A# (A# F A# D# G C)


Intro
Guitar 1/2:
C ||-----------------------------------|
G#||-----------------------------------|
D#||-----------------------------------|
A#||--8~------------7~------------12~--|
F ||--5~------------8~------------8-~--|
A#||--5~------------7~------------8-~--|


Guitar 1:
C ||-------|
G#||-------|
D#||-------|
A#||--10~--|
F ||--8-~--|
A#||--8-~--|


Guitar 2:
C ||-------------|
G#||-------------|
D#||-------------|
A#||--9-~--h10~--|
F ||--10~--------|
A#||-------------|


Guitar 1/2:
C ||---------------------------------------------------------|
G#||---------------------------------------------------------|
D#||---------------------------------------------------------|
A#||--15-1515--1515--1515---1515-14-1414--1414--1414---1414--|
F ||--12-1212--1212--1212---1212-10-1010--1010--1010---1010--|
A#||--12-1212--1212--1212---1212-10-1010--1010--1010---1010--|


C ||---------------------------------------------------------|
G#||---------------------------------------------------------|
D#||---------------------------------------------------------|
A#||--12-1212--1212--1212---1212-12-1212--1212--1212---1212--|
F ||--8--8-8---8-8---8-8----8-8--8--8-8---8-8---8-8----8-8---|
A#||--8--8-8---8-8---8-8----8-8--8--8-8---8-8---8-8----8-8---|



Verse
Guitar 1:
C ||---------------------------------------------------------|
G#||---------------------------------------------------------|
D#||---------------------------------------------------------|
A#||--8~------------7~------------12-1212--1212--1212---10~--|
F ||--5~------------8~------------8--8-8---8-8---8-8----8-~--|
A#||--5~------------7~------------8--8-8---8-8---8-8----8-~--|


Guitar 2:
C ||---------------------------------------------------------|
G#||---------------------------------------------------------|
D#||---------------------------------------------------------|
A#||--8~-----------------------7--12-1212--1212--1212---10~--|
F ||--5~---------------8--10------8--8-8---8-8---8-8----8-~--|
A#||--5~------------7-------------8--8-8---8-8---8-8----8-~--|


Guitar 1/2:
C ||---------------------------------------------------------|
G#||---------------------------------------------------------|
D#||---------------------------------------------------------|
A#||--15-1515--1515--1515---1515-14-1414--1414--1414---1414--|
F ||--12-1212--1212--1212---1212-10-1010--1010--1010---1010--|
A#||--12-1212--1212--1212---1212-10-1010--1010--1010---1010--|


C ||---------------------------------------------------------|
G#||---------------------------------------------------------|
D#||---------------------------------------------------------|
A#||--12-1212--1212--1212---1212-12-1212--1212--1212---1212--|
F ||--8--8-8---8-8---8-8----8-8--8--8-8---8-8---8-8----8-8---|
A#||--8--8-8---8-8---8-8----8-8--8--8-8---8-8---8-8----8-8---|



Pre-Chorus
Guitar 1/2:
C ||--------------------------------------------------------------|
G#||--------------------------------------------------------------|
D#||--7--------5----------------------7--------5-----------x------|
A#||--8--5--5--7--3--3-------------------5--5-----3--3------7~----| x2
F ||-----5--5-----3--3--------0--7--8----5--5-----3--3-------8~---|
A#||-----5--5-----3--3-------------------5--5-----3--3--------7~--|
         .  .     .  .                   .  .     .  .


Guitar 1:
C ||-------|
G#||--'5~--|
D#||-------|
A#||-------|
F ||-------|
A#||-------|


Guitar 2:
C ||-------|
G#||-------|
D#||-------|
A#||--'3~--|
F ||-------|
A#||-------|



Chorus
Guitar 1:
C ||--------------------------------------------------|
G#||-----15-------------------13-13-------------------|
D#||--12----14-15---15-15-15--------15-14---15-14-----|
A#||----------------------------------------------15--|
F ||--------------------------------------------------|
A#||--------------------------------------------------|


C ||---------------------------------------------------|
G#||-----15--------------------------------------------|
D#||--12----14-15---15-15-15--14----12-12-12-12-14-14--|
A#||-----------------------------15--------------------|
F ||---------------------------------------------------|
A#||---------------------------------------------------|


C ||--------------------------------------------------|
G#||-----15-------------------13-13-------------------|
D#||--12----14-15---15-15-15--------15-14---15-14-----|
A#||----------------------------------------------15--|
F ||--------------------------------------------------|
A#||--------------------------------------------------|


C ||---------------------------------------------------|
G#||-----15--------------------------------------------|
D#||--12----14-15---15-15-15--14-14-14-12-12-12-11-11--|
A#||---------------------------------------------------|
F ||---------------------------------------------------|
A#||---------------------------------------------------|


Guitar 2:
C ||-----------------------------------------------------------------------------------|
G#||-----------------------------------------------------------------------------------|
D#||--8-8-8-8-8-8-8-8-10-10-10-10-10-10-10-10-12-12-12-12-12-12-12-12-7-7-7-7-7-7-7-7--|
A#||--8-8-8-8-8-8-8-8-10-10-10-10-10-10-10-10-12-12-12-12-12-12-12-12-7-7-7-7-7-7-7-7--| x2
F ||--6-6-6-6-6-6-6-6-8--8--8--8--8--8--8--8--10-10-10-10-10-10-10-10-5-5-5-5-5-5-5-5--|
A#||-----------------------------------------------------------------------------------|



Verse
Guitar 1:
C ||---------------------------------------------------------|
G#||---------------------------------------------------------|
D#||---------------------------------------------------------|
A#||--8~------------7~------------12-1212--1212--1212---10~--|
F ||--5~------------8~------------8--8-8---8-8---8-8----8-~--|
A#||--5~------------7~------------8--8-8---8-8---8-8----8-~--|


Guitar 2:
C ||---------------------------------------------------------|
G#||---------------------------------------------------------|
D#||---------------------------------------------------------|
A#||--8~-----------------------7--12-1212--1212--1212---10~--|
F ||--5~---------------8--10------8--8-8---8-8---8-8----8-~--|
A#||--5~------------7-------------8--8-8---8-8---8-8----8-~--|


Guitar 1/2:
C ||---------------------------------------------------------|
G#||---------------------------------------------------------|
D#||---------------------------------------------------------|
A#||--15-1515--1515--1515---1515-14-1414--1414--1414---1414--|
F ||--12-1212--1212--1212---1212-10-1010--1010--1010---1010--|
A#||--12-1212--1212--1212---1212-10-1010--1010--1010---1010--|


C ||---------------------------------------------------------|
G#||---------------------------------------------------------|
D#||---------------------------------------------------------|
A#||--12-1212--1212--1212---1212-12-1212--1212--1212---1212--|
F ||--8--8-8---8-8---8-8----8-8--8--8-8---8-8---8-8----8-8---|
A#||--8--8-8---8-8---8-8----8-8--8--8-8---8-8---8-8----8-8---|



Guitar 1/2:
C ||--------------------------------------------------------------------------|
G#||--------------------------------------------------------------------------|
D#||--------------------------------------------------------------------------|
A#||--8--8--8-8--8--8-7--7--7-7--7--7-12-12-1212-12-1210~---------------------|
F ||--5--5--5-5--5--5-8--8--8-8--8--8-8--8--8-8--8--8-8-~------\\\pick\\\-----|
A#||--5--5--5-5--5--5-7--7--7-7--7--7-8--8--8-8--8--8-8-~---x---\\\\slide\\\--|


C ||---------------------------------------------------------|
G#||---------------------------------------------------------|
D#||---------------------------------------------------------|
A#||--15-1515--1515--1515---1515-14-1414--1414--1414---1414--|
F ||--12-1212--1212--1212---1212-10-1010--1010--1010---1010--|
A#||--12-1212--1212--1212---1212-10-1010--1010--1010---1010--|


C ||-----------------------------------------------|
G#||-----------------------------------------------|
D#||-----------------------------------------------|
A#||--12-1212--1212--1212---1212-12-12-------------|
F ||--8--8-8---8-8---8-8----8-8--8--8--------------|
A#||--8--8-8---8-8---8-8----8-8--8--8--xxxxxxxx----|



Pre-Chorus
Guitar 1/2:
C ||--------------------------------------------------------------|
G#||--------------------------------------------------------------|
D#||--7--------5----------------------7--------5-----------x------|
A#||--8--5--5--7--3--3-------------------5--5-----3--3------7~----|
F ||-----5--5-----3--3--------0--7--8----5--5-----3--3-------8~---|
A#||-----5--5-----3--3-------------------5--5-----3--3--------7~--|
         .  .     .  .                   .  .     .  .


C ||-----------------------------------------------------------|
G#||-----------------------------------------------------------|
D#||--7--------5----------------------7--------5---------------|
A#||--8--5--5--7--3--3-------------------5--5-----3--3-----7~--|
F ||-----5--5-----3--3--------0--7--8----5--5-----3--3-----8~--|
A#||-----5--5-----3--3-------------------5--5-----3--3-----7~--|
         .  .     .  .                   .  .     .  .



Chorus
Guitar 1:
C ||--------------------------------------------------|
G#||-----15-------------------13-13-------------------|
D#||--12----14-15---15-15-15--------15-14---15-14-----|
A#||----------------------------------------------15--|
F ||--------------------------------------------------|
A#||--------------------------------------------------|


C ||---------------------------------------------------|
G#||-----15--------------------------------------------|
D#||--12----14-15---15-15-15--14----12-12-12-12-14-14--|
A#||-----------------------------15--------------------|
F ||---------------------------------------------------|
A#||---------------------------------------------------|


C ||--------------------------------------------------|
G#||-----15-------------------13-13-------------------|
D#||--12----14-15---15-15-15--------15-14---15-14-----|
A#||----------------------------------------------15--|
F ||--------------------------------------------------|
A#||--------------------------------------------------|


C ||-------------------------------------|
G#||-----15-------------------15~--------|
D#||--12----14-15---15-15-15--17~-b-19~--|
A#||-------------------------------------|
F ||-------------------------------------|
A#||-------------------------------------|


Guitar 2:
C ||-----------------------------------------------------------------------------------|
G#||-----------------------------------------------------------------------------------|
D#||--8-8-8-8-8-8-8-8-10-10-10-10-10-10-10-10-12-12-12-12-12-12-12-12-7-7-7-7-7-7-7-7--|
A#||--8-8-8-8-8-8-8-8-10-10-10-10-10-10-10-10-12-12-12-12-12-12-12-12-7-7-7-7-7-7-7-7--|
F ||--6-6-6-6-6-6-6-6-8--8--8--8--8--8--8--8--10-10-10-10-10-10-10-10-5-5-5-5-5-5-5-5--|
A#||-----------------------------------------------------------------------------------|


C ||--------------------------------------------------------------------------------------|
G#||--------------------------------------------------------------------------------------|
D#||--8-8-8-8-8-8-8-8-10-10-10-10-10-10-10-10-12-12-12-12-12-12-12-12-7-7-7-7-7-7---------|
A#||--8-8-8-8-8-8-8-8-10-10-10-10-10-10-10-10-12-12-12-12-12-12-12-12-7-7-7-7-7-7-//12\\--|
F ||--6-6-6-6-6-6-6-6-8--8--8--8--8--8--8--8--10-10-10-10-10-10-10-10-5-5-5-5-5-5-//12\\--|
A#||------------------------------------------------------------------------------//12\\--|



Guitar 1:
C ||---------------------------------------------------|
G#||---------------------------------------------------|
D#||--12-12-12-14-14-14-15-15----------14-14-14-15-15--|
A#||--------------------------15-15-15-----------------|
F ||---------------------------------------------------|
A#||---------------------------------------------------|


C ||---------------------------------------------------|
G#||--------------------------15-15-15-13-13-13--------|
D#||--12-12-12-14-14-14-15-15-------------------15-15--|
A#||---------------------------------------------------|
F ||---------------------------------------------------|
A#||---------------------------------------------------|


C ||---------------------------------------------------|
G#||---------------------------------------------------|
D#||--12-12-12-14-14-14-15-15----------14-14-14-15-15--|
A#||--------------------------15-15-15-----------------|
F ||---------------------------------------------------|
A#||---------------------------------------------------|


C ||--------------------------------------|
G#||---------------------------15~--------|
D#||--12-12-12-14-14-14-15-15--17~-b-19~--|
A#||--------------------------------------|
F ||--------------------------------------|
A#||--------------------------------------|


Guitar 2:
C ||-------------------------------------------------------------------|
G#||-------------------------------------------------------------------|
D#||-------------------------------------------------------------------|
A#||--1-1-1-1-1-1-1-1-3-3-3-3-3-3-3-3-5-5-5-5-5-5-5-5-0-0-0-0-0-0-0-0--| x2
F ||--1-1-1-1-1-1-1-1-3-3-3-3-3-3-3-3-5-5-5-5-5-5-5-5-0-0-0-0-0-0-0-0--|
A#||--1-1-1-1-1-1-1-1-3-3-3-3-3-3-3-3-5-5-5-5-5-5-5-5-0-0-0-0-0-0-0-0--|



Breakdown
Guitar 1/2:
C ||----------------------------------------------|----------------------------------------------|
G#||----------------------------------------------|----------------------------------------------|
D#||----------------------------------------------|----------------------------------------------|
A#||--0-----0-----0-----0--------0---0---0----1~--|--0-----0-----0-----0--------0---0---0----1~--|
F ||--0-----0-----0-----0--------0---0---0----1~--|--0-----0-----0-----0--------0---0---0----1~--|
A#||--0-----0--0000-----0--------0---0---0----1~--|--0-----0--0000-----0--------0---0---0----1~--|
               ...                                            ...



Bridge
Guitar 1:
C ||-------------------------------------------|
G#||-------------------------------------------|
D#||--14~-----15~----17-15-14----10~----12-7~--|
A#||--x-------x------x--x--x-----x------x--x---| x2
F ||--12~-----13~----15-13-12~---8-~----10-5~--|
A#||-------------------------------------------|


Guitar 2:
C ||-------------------------------------------|
G#||-------------------------------------------|
D#||-------------------------------------------|
A#||--0~------12~----------------8~--------5~--|
F ||--0~------12~----------------8~--------5~--|
A#||--0~------12~----------------8~------x-5~--|


Guitar 1/2:
C ||------------|
G#||------------|
D#||------------|
A#||------------|
F ||--x-x-/12\--|
A#||--x-x-/12\--|



Guitar 1:
C ||------------------------------------------------------------------------------------------|
G#||------------------------------------------------------------------------------------------|
D#||--14-14-14-14-14-14-14-10-10-10-10-10-10-10-10-10-15-15-15-15-15-15-15-7-7-7-7-7-7-7-7-7--|
A#||--x--x--x--x--x--x--x--x--x--x--x--x--x--x--x--x--x--x--x--x--x--x--x--x-x-x-x-x-x-x-x-x--|
F ||--12-12-12-12-12-12-12-8--8--8--8--8--8--8--8--8--13-13-13-13-13-13-13-5-5-5-5-5-5-5-5-5--|
A#||------------------------------------------------------------------------------------------|


C ||------------------------------------------------------------------------|
G#||------------------------------------------------------------------------|
D#||--14-14-14-14-14-14-14-10-10-10-10-10-10-10-10-10-15-15-15-15-15-15-15--|
A#||--x--x--x--x--x--x--x--x--x--x--x--x--x--x--x--x--x--x--x--x--x--x--x---|
F ||--12-12-12-12-12-12-12-8--8--8--8--8--8--8--8--8--13-13-13-13-13-13-13--|
A#||------------------------------------------------------------------------|


C ||------------------------------|
G#||------------------------------|
D#||--19-19-19-19-19-19-19-19-19--|
A#||--x--x--x--x--x--x--x--x--x---|
F ||--17-17-17-17-17-17-17-17-17--|
A#||------------------------------|


Guitar 2:
C ||-------------------------------------------------------------------|
G#||-------------------------------------------------------------------|
D#||-------------------------------------------------------------------|
A#||--0-0-0-0-0-0-0-3-3-3-3-3-3-3-3-3-8-8-8-8-8-8-8-5-5-5-5-5-5-5-5-5--| x2
F ||--0-0-0-0-0-0-0-3-3-3-3-3-3-3-3-3-8-8-8-8-8-8-8-5-5-5-5-5-5-5-5-5--|
A#||--0-0-0-0-0-0-0-3-3-3-3-3-3-3-3-3-8-8-8-8-8-8-8-5-5-5-5-5-5-5-5-5--|



Chorus
Guitar 1:
C ||--------------------------------------------------|
G#||-----15-------------------13-13-------------------|
D#||--12----14-15---15-15-15--------15-14---15-14-----|
A#||----------------------------------------------15--|
F ||--------------------------------------------------|
A#||--------------------------------------------------|


C ||---------------------------------------------------|
G#||-----15--------------------------------------------|
D#||--12----14-15---15-15-15--14----12-12-12-12-14-14--|
A#||-----------------------------15--------------------|
F ||---------------------------------------------------|
A#||---------------------------------------------------|


C ||--------------------------------------------------|
G#||-----15-------------------13-13-------------------|
D#||--12----14-15---15-15-15--------15-14---15-14-----|
A#||----------------------------------------------15--|
F ||--------------------------------------------------|
A#||--------------------------------------------------|


C ||-------------------------------------|
G#||-----15-------------------15~--------|
D#||--12----14-15---15-15-15--17~-b-19~--|
A#||-------------------------------------|
F ||-------------------------------------|
A#||-------------------------------------|


Guitar 2:
C ||-----------------------------------------------------------------------------------|
G#||-----------------------------------------------------------------------------------|
D#||--8-8-8-8-8-8-8-8-10-10-10-10-10-10-10-10-12-12-12-12-12-12-12-12-7-7-7-7-7-7-7-7--|
A#||--8-8-8-8-8-8-8-8-10-10-10-10-10-10-10-10-12-12-12-12-12-12-12-12-7-7-7-7-7-7-7-7--|
F ||--6-6-6-6-6-6-6-6-8--8--8--8--8--8--8--8--10-10-10-10-10-10-10-10-5-5-5-5-5-5-5-5--|
A#||-----------------------------------------------------------------------------------|


C ||--------------------------------------------------------------------------------------|
G#||--------------------------------------------------------------------------------------|
D#||--8-8-8-8-8-8-8-8-10-10-10-10-10-10-10-10-12-12-12-12-12-12-12-12-7-7-7-7-7-7---------|
A#||--8-8-8-8-8-8-8-8-10-10-10-10-10-10-10-10-12-12-12-12-12-12-12-12-7-7-7-7-7-7-//12\\--|
F ||--6-6-6-6-6-6-6-6-8--8--8--8--8--8--8--8--10-10-10-10-10-10-10-10-5-5-5-5-5-5-//12\\--|
A#||------------------------------------------------------------------------------//12\\--|



Guitar 1:
C ||---------------------------------------------------|
G#||---------------------------------------------------|
D#||--12-12-12-14-14-14-15-15----------14-14-14-15-15--|
A#||--------------------------15-15-15-----------------|
F ||---------------------------------------------------|
A#||---------------------------------------------------|


C ||---------------------------------------------------|
G#||--------------------------15-15-15-13-13-13--------|
D#||--12-12-12-14-14-14-15-15-------------------15-15--|
A#||---------------------------------------------------|
F ||---------------------------------------------------|
A#||---------------------------------------------------|


C ||---------------------------------------------------|
G#||---------------------------------------------------|
D#||--12-12-12-14-14-14-15-15----------14-14-14-15-15--|
A#||--------------------------15-15-15-----------------|
F ||---------------------------------------------------|
A#||---------------------------------------------------|


C ||--------------------------------------|
G#||---------------------------15~--------|
D#||--12-12-12-14-14-14-15-15--17~-b-19~--|
A#||--------------------------------------|
F ||--------------------------------------|
A#||--------------------------------------|


Guitar 2:
C ||-------------------------------------------------------------------|
G#||-------------------------------------------------------------------|
D#||-------------------------------------------------------------------|
A#||--1-1-1-1-1-1-1-1-3-3-3-3-3-3-3-3-5-5-5-5-5-5-5-5-0-0-0-0-0-0-0-0--| x2
F ||--1-1-1-1-1-1-1-1-3-3-3-3-3-3-3-3-5-5-5-5-5-5-5-5-0-0-0-0-0-0-0-0--|
A#||--1-1-1-1-1-1-1-1-3-3-3-3-3-3-3-3-5-5-5-5-5-5-5-5-0-0-0-0-0-0-0-0--|



Outro
Guitar 1/2:
C ||--------------|
G#||--------------|
D#||--(feedback)--|
A#||--------------|
F ||--------------|
A#||--------------|


C ||----------------------------------------------|----------------------------------------|
G#||----------------------------------------------|----------------------------------------|
D#||----------------------------------------------|----------------------------------------|
A#||--0-----0-----0-----0--------0---0---0----1~--|--0-----0-----0-----0--------0---0---0--|
F ||--0-----0-----0-----0--------0---0---0----1~--|--0-----0-----0-----0--------0---0---0--|
A#||--0-----0--0000-----0--------0---0---0----1~--|--0-----0--0000-----0--------0---0---0--|
               ...                                            ...


C ||----------------------------------------------|----------------------------------------|
G#||----------------------------------------------|----------------------------------------|
D#||----------------------------------------------|----------------------------------------|
A#||--0-----0-----0-----0--------0---0---0----1~--|--0-----0-----0-----0--------0---0---0--|
F ||--0-----0-----0-----0--------0---0---0----1~--|--0-----0-----0-----0--------0---0---0--|
A#||--0-----0--0000-----0--------0---0---0----1~--|--0-----0--0000-----0--------0---0---0--|
               ...                                            ...




Tablature Legend
----------------
 h   hammer-on
 p   pull-off
 b   bend
 pb  pre-bend
 r   release bend
 ~   hold / vibrato
 .   palm mute
 /   slide up
 \   slide down
 *   pinch harmonic
 '   natural harmonic
 x   mute note
 T   tap
comments
We did not receive enough feedback on this tab! Please rate:
print report bad tab
1 2 3 4 5
2 comments total.
-2 reply
ColinGreenDay15 wrote on February 24 2013, 05:32 pm

they don't play in A#, they play in C#

0 reply
Joshua Garcia wrote on February 24 2013, 06:06 pm

I'm a little fed up with these typical assumptions that they only play one tuning for the entire album.

No, they don't. This song is definitely, 100%, without a doubt in Drop A#. They also play the songs "The Wind Shifts" and "Departures" in Drop A#. I know this because you can't even play the Breakdown or the Outro in Drop #C.

Look, I don't mean to come across as rude, but maybe if you tried it for yourself instead of assuming a tab is wrong because the tuning isn't what you expected, you could see that for yourself. Please keep that in mind, next time.

I want to post or [tab]
guest
You may want to rate the tab now too:
select rating
Please do not post tabs as comments. Select "correction" instead!