Oops, an error
Loading. Please wait.

Carnavas Tab

2,690 views 4 this week
no commentswrite comment
1 2 3 4 5
excellent!
x 5
Autoscroll
+/-
esc
set tempo
stop
Contributor
Difficulty
intermediate
Hey! There's an official Ultimate Guitar app which is ideal
for learning songs when you're away from computer. Get the app
WARNING: You are trying to view
                                    content from Ultimate-Guitar.com
                                    in an unauthorized application,
                                    which is prohibited.

                                    Please use an official Ultimate
                                    Guitar Tabs application for iPhone,
                                    iPad or Android to access legitimate
                                    chords, guitar, bass, and drum tabs
                                    from Ultimate-Guitar.com database.

                                    Type "ultimate guitar tabs" in Apple
                                    App Store's or Android Market's
                                    search to find the application.
More streamlined album convenientness!

CARNAVAS- Silversun Pickups
All songs in standard tuning unless noted otherwise.

1. Melatonin
Intro: (1x)
e:3-------3-------3-------3--2------3------3------3--2-|
B:3-------3-------3-------3--3------3------3------3--3-|
G:0-------2-------0-------2--2------2------0------2--2-|
D:0-------2-------2-------0--0------2------2------0--0-|
A:2-------0-------3-------0--0------0------3------0--0-|
E:3-------0-------0-------0--0------0------0------0--0-|

Verse:
e:---------------------------------------------|
B:---------------------------------------------|
G:---------------------------------------------|
D:5b---s7b---2b---4b---7b---2-5b---4b----------|
A:---------------------------------------------|
E:---------------------------------------------|

e:3------------------------------------------------------------------------|
B:3------------------------------------------------------------------------|
G:0------------------------------------------------------------------------|
D:0-------7--5--5--5-5h7p5-4----4h5p4-2------4-5--2--5-5h7p5-4----2-4-5----|
A:2-----7--7--7--3------------5---------3-0---------------------5----------|
E:3------------------------------------------------------------------------|x2

Verse 2: (1x)
e:3-------3-------3-------3--2------3------3------3--2-|
B:3-------3-------3-------3--3------3------3------3--3-|
G:0-------2-------0-------2--2------2------0------2--2-|
D:0-------2-------2-------0--0------2------2------0--0-|
A:2-------0-------3-------0--0------0------3------0--0-|
E:3-------0-------0-------0--0------0------0------0--0-|

e:3------------------------------------------------------------------------|
B:3------------------------------------------------------------------------|
G:0------------------------------------------------------------------------|
D:0-------7--5--5--5-5h7p5-4----4h5p4-2------4-5--2--5-5h7p5-4----2-4-5----|
A:2-----7--7--7--3------------5---------3-0---------------------5----------|
E:3------------------------------------------------------------------------|

e:----------------------------------------------------------------------|
B:----------------------------------------------------------------------|
G:----------------------------------------------------------------------|
D:5--s7b--7--s10b---10h12-12b-s20s12s21---5-7-2--2-5-7-2---4h5p4--4-----|
A:----------------------------------------------------------------------|
E:----------------------------------------------------------------------|

Interlude: (2x)
e:3-------3-------3-------3--2------3------3------3--2-|
B:3-------3-------3-------3--3------3------3------3--3-|
G:0-------2-------0-------2--2------2------0------2--2-|
D:0-------2-------2-------0--0------2------2------0--0-|
A:2-------0-------3-------0--0------0------3------0--0-|
E:3-------0-------0-------0--0------0------0------0--0-|

Outro: (Play until stop)
e|-2--2b-------x---------x-|
b|-3--3--------x---------x-|
g|-2--2--------x---------4-|
d|-0--0--------5---------5-|
a|-0--0--------5---------5-|
e|-0--0--------3---------3-|

2. Well Thought Out Twinkles

intro

e--|------------------------------|----------------------------------|
b--|------------------------------|----------------------------------|
g--|------------------------------|----------------------------------|
d--|----------------11--9---------|------------------------9---------|
a--|11---11-11--11----------------|11---11-11--11--9--9-11-----------|
E--|9----9--0---9-----------------|9----9--0---9---------------------|

e--|------------------------------|-----------------------------------|
b--|------------------------------|-----------------------------------|
g--|------------------------------|-----------------------------------|
d--|----------------11--9---------|----------------11-9-11b12b11-9----|
a--|11---11-11--11----------------|11---11-11--11------------------11-|
E--|9----9--0---9-----------------|9----9--0---9----------------------|

e--|------------------------------|----------------------------------|
b--|------------------------------|----------------------------------|
g--|------------------------------|----------------------------------|
d--|----------------11--9---------|------------------------9---------|
a--|11---11-11--11----------------|11---11-11--11--9--9-11-----------|
E--|9----9--0---9-----------------|9----9--0---9---------------------|

e--|------------------------------|--------------------------------|
b--|------------------------------|--------------------------------|
g--|------------------------------|--------------------------------|
d--|----------------11--9---------|--------------------------------|
a--|11---11-11--11----------------|11---11-11--11---11-11--11--11--|
E--|9----9--0---9-----------------|9----9--0---9----9--0---9---0---|

e--|------------------------------|
b--|------------------------------|
g--|------------------------------|
d--|------------------------------|
a--|11--11--11--11--11--11--11--11|
E--|9---9---9---9---9---9---9---9-|


verse

e--|------------------------------------------------------------|
g--|4--4--4--4--4--4--4--4--2--2--2--2--2--2--2--2-----9--9---9-|
b--|4--4--4--4--4--4--4--4--2--2--2--2--2--2--2--2-----9--9---9-|
d--|4--4--4--4--4--4--4--4--2--2--2--2--2--2--2--2-----9--9---9-|
a--|2--2--2--2--2--2--2--2--0--0--0--0--0--0--0--0-----7--7---7-|
E--|-----------------------------------------------0-0----------|

e--|----------------------------------------------------------------|
g--|-----5-5-5-5-5-5-5-5-4-4-4-4-4-4-4-4-2-2-2-2-2-2-2-2-----9-9--9-|
b--|-----6-6-6-6-6-6-6-6-4-4-4-4-4-4-4-4-2-2-2-2-2-2-2-2-----9-9--9-|
d--|-----6-6-6-6-6-6-6-6-4-4-4-4-4-4-4-4-2-2-2-2-2-2-2-2-----9-9--9-|
a--|-----4-4-4-4-4-4-4-4-2-2-2-2-2-2-2-2-0-0-0-0-0-0-0-0-----7-7--7-|
E--|-----------------------------------------------------0-0--------|

e--|----------------------------------------------------------------|
g--|-----5-5-5-5-5-5-5-5-4-4-4-4-4-4-4-4-2-2-2-2-2-2-2-2-----9-9--9-|
b--|-----6-6-6-6-6-6-6-6-4-4-4-4-4-4-4-4-2-2-2-2-2-2-2-2-----9-9--9-|
d--|-----6-6-6-6-6-6-6-6-4-4-4-4-4-4-4-4-2-2-2-2-2-2-2-2-----9-9--9-|
a--|-----4-4-4-4-4-4-4-4-2-2-2-2-2-2-2-2-0-0-0-0-0-0-0-0-----7-7--7-|
E--|-----------------------------------------------------0-0--------|

e--|-----------------------------------------------------------------------|
g--|5--5--5--5--5--5--5--5--4--4--4--4--4--4--4--4--2--2--2--2--2--2--2--2-|
b--|6--6--6--6--6--6--6--6--4--4--4--4--4--4--4--4--2--2--2--2--2--2--2--2-|
d--|6--6--6--6--6--6--6--6--4--4--4--4--4--4--4--4--2--2--2--2--2--2--2--2-|
a--|4--4--4--4--4--4--4--4--2--2--2--2--2--2--2--2--0--0--0--0--0--0--0--0-|
E--|-----------------------------------------------------------------------|


pre-bridge

e--|----------------------------------|
g--|-----9--9-----9--9-----9--9-----9-|
b--|-----9--9-----9--9-----9--9-----9-|
d--|-----9--9-----9--9-----9--9-----9-|
a--|-----7--7-----7--7-----7--7-----7-|
E--|0-0-------0-0------0-0------0-0---|


bridge - i think there's two guitars playing here, one of which is
         mirroring the bass part like so (this is what he plays live):

e--|--------------------------------------------------------|
g--|--------------------------------------------------------|
b--|--------------------------------------------------------|
d--|11--11-11--11--11-11--11--11-11--11--11-11--11-11-11-11-|  x2
a--|11--11-11--11--11-11--11--11-11--11--11-11--11-11-11-11-|
E--|9---9--0---9---9--0---9---9--0---9---9--0---9--0--9--0--|

e--|----------------------------------------|
g--|----------------------------------------|
b--|----------------------------------------|
d--|9--9-9--9--9-9--9--9-9--9--9-9--9-9-9-9-|
a--|9--9-9--9--9-9--9--9-9--9--9-9--9-9-9-9-|
E--|7--7-0--7--7-0--7--7-0--7--7-0--7-0-7-0-|

e--|----------------------------------------|
g--|----------------------------------------|
b--|----------------------------------------|
d--|7--7-7--7--7-7--7--7-7--7--7-7--7-7-7-7-|
a--|7--7-7--7--7-7--7--7-7--7--7-7--7-7-7-7-|
E--|5--5-0--5--5-0--5--5-0--5--5-0--5-0-5-0-|

the other guitar is quickly strumming the top notes of these chords,
something like this (these notes are just guides):

e--|------------------------------------|
b--|5------4--5------5--4------4--4---2-|
g--|6------4--6------6--4------4--2---2-|
d--|------------------------------------|
a--|------------------------------------|
E--|------------------------------------|

then there's a heavily distorted/effected solo. i have no idea what he's
actually playing, but it sounds like these notes with a lot of distortion:

e--|----------------------|
b--|----------------------|
g--|----------------------|
d--|11----12--------------|
a--|------------13-----11-|
E--|----------------------|


e--|--------------------------------------------------------|
g--|--------------------------------------------------------|
b--|11--11-11--11--11-11--11--11-11--11--11-11--11-11-11-11-|
d--|x---x--x---x---x--x---x---x--x---x---x--x---x--x--x--x--|
a--|11--11-11--11--11-11--11--11-11--11--11-11--11-11-11-11-|
E--|9---9--0---9---9--0---9---9--0---9---9--0---9--0--9--0--|

e--|--------------------------------------------------------|
g--|--------------------------------------------------------|
b--|12--12-12--12--12-12--12--12-12--12--12-12--12-12-12-12-|
d--|x---x--x---x---x--x---x---x--x---x---x--x---x--x--x--x--|
a--|11--11-11--11--11-11--11--11-11--11--11-11--11-11-11-11-|
E--|9---9--0---9---9--0---9---9--0---9---9--0---9--0--9--0--|

e--|--------------------------------------------------------|
g--|--------------------------------------------------------|
b--|--------------------------------------------------------|
d--|13--13-13--13--13-13--13--13-13--13--13-13--13-13-13-13-|
a--|11--11-11--11--11-11--11--11-11--11--11-11--11-11-11-11-|
E--|9---9--0---9---9--0---9---9--0---9---9--0---9--0--9--0--|

e--|--------------------------------------------------------|
g--|--------------------------------------------------------|
b--|--------------------------------------------------------|
d--|11--11-11--11--11-11--11--11-11--11--11-11--11-11-11-11-|
a--|11--11-11--11--11-11--11--11-11--11--11-11--11-11-11-11-|
E--|9---9--0---9---9--0---9---9--0---9---9--0---9--0--9--0--|


ending

e--|------------------------------------------------------------------------|
b--|------------------------------------------------------------------------|
g--|------------------------------------------------------------------------|
d--|6--6--6--6--6--6--6--6--6--6--6--6--6--6--6--6--6--6--6--6--6--6--6--6--|
a--|7--7--7--7--7--7--7--7--7--7--7--7--7--7--7--7--7--7--7--7--7--7--7--7--|
E--|5--5--5--5--5--5--5--5--0--0--0--0--0--0--0--0--0--0--0--0--0--0--0--0--|

e--|-----------------------------------------------|
b--|-----------------------------------------------|
g--|-----------------------------------------------|
d--|6--6--6--6--6--6--6--6--6--6--6--6--6--6--6--6-|
a--|7--7--7--7--7--7--7--7--7--7--7--7--7--7--7--7-|
E--|5--5--5--5--5--5--5--5--5--5--5--5--5--5--5--5-|

e--|-----------------------------------------------------------------------|
b--|-----------------------------------------------------------------------|
g--|-----------------------------------------------------------------------|
d--|6--6--6--6--6--6--6--6--6--6--6--6--6--6--6--6--6--6--6--6--6--6--6--6-|
a--|x--x--x--x--x--x--x--x--x--x--x--x--x--x--x--x--x--x--x--x--x--x--x--x-|
E--|8--8--8--8--8--8--8--8--7--7--7--7--7--7--7--7--7--7--7--7--7--7--7--7-|

e--|--------------------------------------------------------|
g--|--------------------------------------------------------|
b--|--------------------------------------------------------|
d--|11--11-11--11--11-11--11--11-11--11--11-11--11-11-11-11-|  x3
a--|11--11-11--11--11-11--11--11-11--11--11-11--11-11-11-11-|
E--|9---9--0---9---9--0---9---9--0---9---9--0---9--0--9--0--|

e--|--------------------------------------------------------------------|
g--|--------------------------------------------------------------------|
b--|--------------------------------------------------------------------|
d--|11--11-11--11--11-11--11--11-11--11--11-11--11-11-11-11-11-11-11-11-|
a--|11--11-11--11--11-11--11--11-11--11--11-11--11-11-11-11-11-11-11-11-|
E--|9---9--0---9---9--0---9---9--0---9---9--0---9--0--9--0--9--9--9--9--|

3.  Checkered Floor

verse

e--|----------------------------------------------------------------|
b--|----------------------------------------------------------------|
g--|----------------------------------------------------------------|
d--|6---6---6---6---6---6---6---6---4---4---4---4---4---4---4---4---|
a--|6---6---6---6---6---6---6---6---4---4---4---4---4---4---4---4---|
E--|4---4---4---4---4---4---4---4---2---2---2---2---2---2---2---2---|

e--|----------------------------------------------------------------|
b--|----------------------------------------------------------------|
g--|8---8---8---8-\-4---4---4---4-/-8---8---8---8-\-4---4---4---4---|
d--|9---9---9---9-\-2---2---2---2-/-9---9---9---9-\-2---2---2---2---|
a--|7---7---7---7-\-2---2---2---2-/-7---7---7---7-\-2---2---2---2---|
E--|0---0---0---0---0---0---0---0---0---0---0---0---0---0---0---0---|


prechorus

e--|----------------------------------------------------------------|
b--|----------------------------------------------------------------|
g--|3---3---3---3---3---3---3---3---3---3---3---3---3---3---3---3---|
d--|4---4---4---4---4---4---4---4---4---4---4---4---4---4---4---4---|
a--|4---4---4---4---4---4---4---4---4---4---4---4---4---4---4---4---|
E--|2---2---2---2---2---2---2---2---2---2---2---2---2---2---2---2---|

e--|----------------------------------------------------------------|
b--|----------------------------------------------------------------|
g--|8---8---8---8-\-4---4---4---4-/-8---8---8---8-\-4---4---4---4---|
d--|9---9---9---9-\-2---2---2---2-/-9---9---9---9-\-2---2---2---2---|
a--|7---7---7---7-\-2---2---2---2-/-7---7---7---7-\-2---2---2---2---|
E--|0---0---0---0---0---0---0---0---0---0---0---0---0---0---0---0---|


chorus

e--|----------------------------------------------------------------|
b--|----------------------------------------------------------------|
g--|4---4---4---4---4---4---4---4---4---4---4---4---4---4---4---4---|
d--|4---4---4---4---4---4---4---4---4---4---4---4---4---4---4---4---|
a--|2---2---2---2---2---2---2---2---2---2---2---2---2---2---2---2---|
E--|----------------------------------------------------------------|

e--|----------------------------------------------------------------|
b--|----------------------------------------------------------------|
g--|6---6---6---6---6---6---6---6---6---6---6---6---6---6---6---6---|
d--|7---7---7---7---7---7---7---7---7---7---7---7---7---7---7---7---|
a--|5---5---5---5---5---5---5---5---5---5---5---5---5---5---5---5---|
E--|----------------------------------------------------------------|

e--|------------------------|------------------------|----------------|
b--|------------------------|------------------------|----------------|
g--|------------------------|------------------------|----------------|
d--|5-----------2-----------|7-----------4-----------|----------------|
a--|5-----------2-----------|7-----------4-----------|----------------|
E--|3-----------0-----------|5-----------2-----------|----------------|


prebridge

e--|------------------------|------------------------|----------------|
b--|------------------------|------------------------|----------------|
g--|------------------------|------------------------|----------------|
d--|2---2---2---4---4---4---|5---5---5---7---7---7---|7---7---7---7---|
a--|2---2---2---4---4---4---|5---5---5---7---7---7---|7---7---7---7---|
E--|0---0---0---2---2---2---|3---3---3---5---5---5---|5---5---5---5---|


bridge

e--|----------------------------------------------------------------|
b--|----------------------------------------------------------------|
g--|9---9---9---9---9---9---9---9---9---9---9---9---9---9---9---9---|
d--|9---9---9---9---9---9---9---9---9---9---9---9---9---9---9---9---|
a--|7---7---7---7---7---7---7---7---7---7---7---7---7---7---7---7---|
E--|----------------------------------------------------------------|

e--|----------------------------------------------------------------|
b--|----------------------------------------------------------------|
g--|11--11--11--11--11--11--11--11--11--11--11--11--11--11--11--11--|
d--|11--11--11--11--11--11--11--11--11--11--11--11--11--11--11--11--|
a--|9---9---9---9---9---9---9---9---9---9---9---9---9---9---9---9---|
E--|----------------------------------------------------------------|

e--|----------------------------------------------------------------|
b--|----------------------------------------------------------------|
g--|----------------------------------------------------------------|
d--|12--12--12--12--12--12--12--12--12--12--12--12--12--12--12--12--|
a--|10--10--10--10--10--10--10--10--10--10--10--10--10--10--10--10--|
E--|10--10--10--10--10--10--10--10--10--10--10--10--10--10--10--10--|

e--|----------------------------------------------------------------|
b--|----------------------------------------------------------------|
g--|4---4---4---4---4---4---4---4---4---4---4---4---4---4---4---4---|
d--|4---4---4---4---4---4---4---4---4---4---4---4---4---4---4---4---|
a--|2---2---2---2---2---2---2---2---2---2---2---2---2---2---2---2---|
E--|----------------------------------------------------------------|


outro

e--|----------------------------------------------------------------|--|
b--|----------------------------------------------------------------|--|
g--|----------------------------------------------------------------|--|
d--|2---2---2---2---2---2---2---2---2---2---2---2---2---4---4---4---|6-|
a--|2---2---2---2---2---2---2---2---2---2---2---2---2---4---4---4---|6-|
E--|0---0---0---0---0---0---0---0---0---0---0---0---0---2---2---2---|4-|

4. Little Lover's So Polite
DROPPED D!

Chords:
D: 000xxx	E: 222xxx	F#: 444xxx

G: 555xxx	A: 777xxx	B: 999xxx

Riff 1 (played twice in intro):

e|-----------------------------------------------------------------|
b|-5-5-3-3-2-2-0-0-2-2-0-0-2-2-3-3-5-5-3-3-2-2-0-0-2-2-0-0-2h3-2-3-|
g|-0-0-0-0-0-0-0-0-0-0-0-0-0-0-0-0-2-2-2-2-2-2-2-2-2-2-2-2-2-2-2-2-|
d|-----------------------------------------------------------------|
a|-----------------------------------------------------------------|
d|-----------------------------------------------------------------|

G
So much for the light show
D
pissing on while pissing off
G
sucking in a smokescreen
D
selling of a loose knit dream

Riff 1 x2

G
folding up the skyline
D
agreeing on a steep decline
G
cant control this airplane
D
being caught is just the same
G
headed for a lowlife
D
little lover’s so polite
G
waking up the core needs
G
with smelling salts and faulty means

Riff 1
did the bones collide
Riff 1
who let the bones collide
Riff 1			 Riff 1
why did the bones collide

nikki:
B      A     D   E
It’s always the same way for me
B      A    D  E	F#
Ending in the same way

G
so much for the showdown
D
keeping up while keeping off
G
choking on the cold feet
D
rolling up the plastic sleeves
G
can't control the slow ride
D
little lover's so polite
G			   D
turning off the low light

			Riff 1
tell me did the bones collide
the bones collide
		Riff 1
the bones collide
			Riff 1
little lover’s so polite
so polite
	Riff 1
so polite
turning off the low light

nikki:
B      A     D   E
It’s always the same way for me
B	A	 D   E
blue turns soft with time
B       A	D  E
broke remains, an everyday disguise
B	A	E
ending in the same way. . .the same way

[solo] 3:22

   1 + 2 + 3 + 4 + 1 + 2 + 3 + 4 + 1 + 2 + 3 + 4 + 1 + 2 + 3 + 4 +
e|-----------------------------------------------------------------|
B|-----------------------------------------------------------------|
G|-----------------------------------------------------------------|
D|-------------------------9~------7------------47-4----47-4-2-4-2-|
A|-2/5-5-----0/5-7~----0/7-----------------------------------------|
D|-----------------------------------------------------------------|

e|-----------------------------------------------------------------|
B|-----------------------------------------------------------------|
G|-----------------------------------------------------------------|
D|-------------------------9-------7------------47-4-----7/9-7-9---|
A|-2/5-5-----0/5-7~----0/7-----------------------------------------|
D|-----------------------------------------------------------------|

e|-----------------------------------------------------------------|
B|-----------------------------------------------------------------|
G|-----------------------------------------------------------------|
D|-97------------7-97--------7---------------------7-------7-------|
A|---975---575-------975-7/9---9-9b9---------------------9---5-----|
D|-------------9---------------------------------------------------|

e|-----------------------------------------------------------------|
B|-----------------------------------------------------------------|
G|-----------------------------------------------------------------|
D|-97------------7-97--------7---------------------7-------7-9-9-7-|
A|---975---575-------975-7/9---9-9b9---------------------9---------|
D|-------------9---------------------------------------------------|

e|-----------------------------------------------------------------|
B|-----------------------------------------------------------------|
G|-9-9-7-7-6-6-4-4-6-6-4-4-6-6-7-7-9-9-7-7-6-6-4-4-6-6-4-4-6-6b----|
D|-----------------------------------------------------------------|
A|-----------------------------------------------------------------|
D|-----------------------------------------------------------------|

e|-----------------------------------------------------------------|
B|-----------------------------------------------------------------|
G|-9-9-7-7-6-6-4-4-6-6-4-4-6-6-7-7-9-9-7-7-6-6-4-4-6-6-4-4-6-6b----|
D|-----------------------------------------------------------------|
A|-----------------------------------------------------------------|
D|-----------------------------------------------------------------|

[fade after solo]

G
tell me did the bones collide
the bones collide
	     D
the bones collide
		    G
little lover’s so polite
so polite
 D
so polite

5. Future Foe Scenarios
verse riff 1 - clean

e--|----------------------------------------|
b--|----------------------------------------|
g--|----7---7------5---5--------------------|
d--|-------------------------7---7-----5----|
a--|--7---------7----------7---------7------|
E--|0---------0----------0---------0--------|

e--|----------------------------------------|
b--|----------------------------------------|
g--|------7---7------5---5------------------|
d--|5--------------------------7---7---5----|
a--|----7---------7----------7--------------|
E--|--0---------0----------0---------0------|

chorus - later in the song this section is strummed instead of picked

e--|-----------------------------------------|
b--|----0---------0---------0----------------|
g--|--------------------------------0--------|
d--|--5-----5---5-----5---5-----5-------7----|
a--|3---------3---------3---------5-------0-3|
E--|-----------------------------------------|

e--|---------------------------------------|
b--|---0---------0---------0---------------|
g--|-------------------------------0-------|
d--|-5-----5---5-----5---5-----5-------7---|
a--|---------3---------3---------5-------0-|
E--|---------------------------------------|

verse riff 2 - distorted

e--|---------------------------------------------------|
b--|---------------------------------------------------|
g--|--------------------5---5------------------------5-|
d--|-------5---5---------------------5---5-----5-------|
a--|7-5-7--------7-5-7--------7-5-7--------5-7----7----|
E--|---------------------------------------------------|

part near the end - (maybe these chords aren't right,
                     but it's something like this... )

e--|--------------------           |--------------------|
b--|----8---8-----8---8-           |----8---8-----8---8-|
g--|----7---7-----7---7-           |----7---7-----7---7-|
d--|----x---x-----x---x-           |----x---x-----x---x-|
a--|----7---7-----7---7-           |----7---7-----7---7-|
E--|0-0-------0-0-------           |8-8-------8-8-------|


e--|--------------------|       |--------------------|
b--|----8---8-----8---8-|       |----8---8-----8---8-|
g--|----7---7-----7---7-|       |----7---7-----7---7-|
d--|----x---x-----x---x-|       |----x---x-----x---x-|
a--|----7---7-----7---7-|       |----7---7-----7---7-|
e--|0-0-------0-0-------|       |8-8-------8-8-------|


e--|----------------------------|
b--|------10---10-------10---10-|
g--|------11---11-------11---11-|
d--|------12---12-------12---12-|     X4
a--|----------------------------|
E--|10-10---------10-10---------|


e--|--------------------------|
b--|----8----8--------8----8--|
g--|----9----9--------9----9--|
d--|----10---10-------10---10-|     X4
a--|--------------------------|
E--|8-8---------10-10---------|

ending

e--|-----------------------------------------------|
b--|-----------------------------------------------|
g--|----------------------5----------------------5-|
d--|-------5---5-----------------5---5-----5-------|
a--|7-5-7--------7-5-7--------7--------5-7----7----|
E--|-----------------------------------------------|

6. Waste it On
COMING SOON!

7.  Lazy Eye
Rhythm Part I
      1     &     2     &     3     &     4     &
|-----------------------------------------------------|
|-----------------------------------------------------|
|-----------------------------------------------------|
|-----------------------------------------------------|
|-----11----11----11----11----11----11----11----11----|
|-----0-----0-----0-----0-----0-----0-----0-----0-----|

      1     &     2     &     3     &     4     &
|-----------------------------------------------------|
|-----------------------------------------------------|
|-----------------------------------------------------|
|-----------------------------------------------------|
|-----9-----9-----9-----9h-11-------11—---11b12-11-11-|
|-----0-----0-----0-----0-----------0-----0-----0--0--|

Rhythm Part II
      1     &     2     &     3     &     4     &
|-----------------------------------------------------|
|-----------------------------------------------------|
|-----------------------------------------------------|
|-----------------------------------------------------|
|-----11----11----11----11----11----11----11----11----|
|-----0-----0-----0-----0-----0-----0-----0-----0-----|

      1     &     2     &     3     &     4     &
|-----------------------------------------------------|
|-----------------------------------------------------|
|-----------------------------------------------------|
|-----------------------------------------------------|
|-----9-----7--/--9-----9h11--------11----11b12-11-11-|
|-----0-----0-----------0-----------0-----0-----0--0--|

Rhythm Part III
      1     &     2     &     3     &     4     &
|-----------------------------------------------------|
|-----------------------------------------------------|
|-----------------------------------------------------|
|-----------------------------------------------------|
|-----11----11----11----11----11----11----11----11----|
|-----0-----0-----0-----0-----0-----0-----0-----0-----|

      1     &     2     &     3     &     4     &
|-----------------------------------------------------|
|-----------------------------------------------------|
|-----------------------------------------------------|
|-----9-----11-p--9-----------------------------------|
|-----9-----9-----------9h-11-------11----11b12-11-11-|
|-----------------------0-----------0-----0-----0--0--|


Rhythm Part IV
      1     &     2     &     3     &     4     &
|-----------------------------------------------------|
|-----------------------------------------------------|
|-----------------------------------------------------|
|-----11----11----11----11----11----11----11----11----|
|-----11----11----11----11----11----11----11----11----|
|-----9-----9-----9-----9-----9-----9-----9-----9-----|

      1     &     2     &     3     &     4     &
|-----------------------------------------------------|
|-----------------------------------------------------|
|-----------------------------------------------------|
|-----9-----9-----9-----9-----9-----9-----9-----9-----|
|-----9-----9-----9-----9-----9-----9-----9-----9-----|
|-----7-----7-----7-----7-----7-----7-----7-----7-----|

Solo I
      1     &     2     &     3     &     4     &
|-----------------------------------------------------|
|-----------------------------------------------------|
|-----9-----9-----------------------------------------|
|-----------------12----9-----------7h-9--7-----6-----|
|-----------------------------------------------------|
|-----------------------------------------------------|

      1     &     2     &     3     &     4     &
|-----------------------------------------------------|
|-----R-----------------------------------------------|
|-----e-----------------------------------------------|
|-----s-----------9-----------------9-----------------|
|-----t-----9h-11-------11----9h-11-------11----9-----|
|-----------------------------------------------------|

      1     &     2     &     3     &     4     &
|-----------------------------------------------------|
|-----------------------------------------------------|
|-----------------------------------------------------|
|-----------------------------------------------------|
|-----7--\--6-----6-----------------------------------|
|-----------------------7-----------7-----7-----7--7--|

      1     &     2     &     3     &     4     &
|-----------------------------------------------------|
|-----------------------------------------------------|
|-----9-----9-----9-----9-----9-----9-----9-----9--9--|
|-----------------------------------------------------|
|-----7-----7-----7-----7-----7-----7-----7-----7--7--|
|-----------------------------------------------------|

      1     &     2     &     3     &     4     &
|-----------------------------------------------------|
|-----------------------------------------------------|
|-----11-------11-11-11-13----------13-13-13b14r13----|
|-----------------------------------------------------|
|-----9--------9--9--9--11----------11-11-11b12r11----|
|-----------------------------------------------------|

      1     &     2     &     3     &     4     &
|-----------------------------------------------------|
|-----------------------------------------------------|
|-----9-----9-----9-----9-----9-----9-----9-----9--9--|
|-----------------------------------------------------|
|-----7-----7-----7-----7-----7-----7-----7-----7--7--|
|-----------------------------------------------------|

      1     &     2     &     3     &     4     &
|-----------------------------------------------------|
|-----------------------------------------------------|
|-----11----9-----11----13----------13-13-13b14r13----|
|-----------------------------------------------------|
|-----9-----7-----9-----11----------11-11-11b12r11----|
|-----------------------------------------------------|

Fill I
      1     &     2     &     3     &     4     &
|-----------------------------------------------------|
|-----------------------------------------------------|
|-----9-----9-----------------------------------------|
|------------------12---9~~~~~~~~~~~~~~~~~9\----------|
|-----------------------------------------------------|
|-----------------------------------------------------|

Rhythm Part V
      1     &     2     &     3     &     4     &
|-----------------------------------------------------|
|-----X--X--------------------------------------------|
|-----X—-X--13----13----13-13-13----13----13----13-13-|
|-----X--X--------------------------------------------|
|-----X—-X--11----11----11-11-11----11----11----11-11-|
|-----------------------------------------------------|

      1     &     2     &     3     &     4     &
|-----------------------------------------------------|
|-----------------------------X-----------------------|
|-----11-------11-11-11-13----X--13-13----13b14r13----|
|-----------------------------X-----------------------|
|-----9--------9--9--9--11----X--11-11----11b12r11----|
|-----------------------------------------------------|

      1     &     2     &     3     &     4     &
|-----------------------------------------------------|
|-----X-----------------------------------------X-----|
|-----X--13-13----13----13-13-13----13----13----X--13-|
|-----X-----------------------------------------X-----|
|-----X--11-11----11----11-11-11----11----11----X--11-|
|-----------------------------------------------------|

      1     &     2     &     3     &     4     &
|-----------------------------------------------------|
|-----------------------------X-----------------------|
|-----11-------11-11-13-13----X--9--9-----9-----9--9--|
|-----------------------------X-----------------------|
|-----9--------9--9--11-11----X--7--7-----7-----7--7--|
|-----------------------------------------------------|

      1     &     2     &     3     &     4     &
|-----------------------------------------------------|
|-----X--X--------------------------------------------|
|-----X--X--13----13----13-13-13----13----13----13-13-|
|-----X--X--------------------------------------------|
|-----X--X--11----11----11-11-11----11----11----11-11-|
|-----------------------------------------------------|

|-----------------------------------------------------|
|-----------------------------X-----------------------|
|-----11-------11-11-11-13----X--13-13----13b14r13----|
|-----------------------------X-----------------------|
|-----9--------9--9--9--11----X--11-11----11b12r11----|
|-----------------------------------------------------|

      1     &     2     &     3     &     4     &
|-----------------------------------------------------|
|-----X--X--------------------------------------------|
|-----X--X--13----13----13-13-13----13----13----11----|
|-----X--X--------------------------------------------|
|-----X--X--11----11----11-11-11----11----11----9-----|
|-----------------------------------------------------|

      1     &     2     &     3     &     4     &
|-----------------------------------------------------|
|-----------------------------------------------------|
|-----------9-----/-----13----------13----13----13-13-|
|-----------------------------------------------------|
|-----------7-----/-----11----------11----11----11-11-|
|-----------------------------------------------------|

Solo II
      1     &     2     &     3     &     4     &
|-----------------------------------------------------|
|-----------------------------------------------------|
|-----------------------------------------------------|
|-----9-----------------------------------------------|
|-----------------------------------------------------|
|-----------------------------------------------------|

      1     &     2     &     3     &     4     &
|-----------------------------------------------------|
|-----------------------------------------------------|
|-----------------------------------------------------|
|-----9-----7-----------6-----------6h-7p-6-----------|
|-----------------------------------------------7-----|
|-----------------------------------------------------|

      1     &     2     &     3     &     4     &
|-----------------------------------------------------|
|-----------------------------------------------------|
|-----------------------------------------------------|
|-----------9-----------------9-----------------------|
|-----9h-11-------11----9h-11-------11----9-----7-----|
|-----------------------------------------------------|

      1     &     2     &     3     &     4     &
|-----------------------------------------------------|
|-----------------------------------------------------|
|-----------------------------------------------------|
|-----------------------------------------------------|
|-----6-----6h7p-6------------------------------------|
|-----------------------7-----------7-----7-----7--7--|

      1     &     2     &     3     &     4     &
|-----------------------------------------------------|
|-----------------------------------------------------|
|-----------------------------------------------------|
|-----------------------------------------------------|
|-----7/----11----11----11----11----11----11----11----|
|-----------------------------------------------------|

      1     &     2     &     3     &     4     &
|-----------------------------------------------------|
|-----------------------------------------------------|
|-----------------------------------------------------|
|-----------------------------------------------------|
|-----9-----9-----9-----9p-11-------11----11b12-11-11-|
|-----------------------------------------------------|

      1     &     2     &     3     &     4     &
|-----------------------------------------------------|
|-----------------------------------------------------|
|-----------------------------------------------------|
|-----------------------------------------------------|
|-----11----11----11----11----11----11----11----11----|
|-----------------------------------------------------|

      1     &     2     &     3     &     4     &
|-----------------------------------------------------|
|-----------------------------------------------------|
|-----------------------------------------------------|
|-----------------------------------------------------|
|-----9-----7--/--9-----9h-11-------11----11----11-11-|
|-----------------------------------------------------|

Bridge
      1     &     2     &     3     &     4     &
|-----------------0-----0--0--------------0-----0--0--|
|-----------------0-----0--0--------------0-----0--0--|
|-----------------9-----9--9--------------9-----9--9--|
|-----9-----9-----9-----9--9--9-----9-----9-----9--9--|
|-----7-----7-----7-----7--7--7-----7-----7-----7--7--|
|-----0-----0-----0-----0--0--0-----0-----0-----0--0--|

      1     &     2     &     3     &     4     &
|-----------------0-----0--0--------------0-----0--0--|
|-----------------0-----0--0--------------0-----0--0--|
|-----------------9-----9--9--------------9-----9--9--|
|-----9-----9-----9-----9--9--9-----9-----9-----9--9--|
|-----7-----7-----7-----7--7--7-----7-----7-----7--7--|
|-----0-----0-----0-----0--0--0-----0-----0-----0--0--|

      1     &     2     &     3     &     4     &
|-----------------0-----0--0--------------0-----0--0--|
|-----------------0-----0--0--------------0-----0--0--|
|-----------------9-----9--9--------------9-----9--9--|
|-----9-----9-----9-----9--9--9-----9-----9-----9--9--|
|-----7-----7-----7-----7--7--7-----7-----7-----7--7--|
|-----0-----0-----0-----0--0--0-----0-----0-----0--0--|

      1     &     2     &     3     &     4     &
|-----------------0-----0--0--------------0-----0--0--|
|-----------------0-----0--0--------------0-----0--0--|
|-----------------9-----9--9--------------9-----9--9--|
|-----9-----9-----9-----9--9--9-----9-----9-----9--9--|
|-----7-----7-----7-----7--7--7-----7-----7-----7--7--|
|-----0-----0-----0-----0--0--0-----0-----0-----0--0--|

      1     &     2     &     3     &     4     &
|-----------------0-----0--0--------------0-----0--0--|
|-----------------0-----0--0--------------0-----0--0--|
|-----------------9-----9--9--------------9-----9--9--|
|-----9-----9-----9-----9--9--9-----9-----9-----9--9--|
|-----7-----7-----7-----7--7--7-----7-----7-----7--7--|
|-----0-----0-----0-----0--0--0-----0-----0-----0--0--|

      1     &     2     &     3     &     4     &
|-----------------0-----0--0--------------0-----0--0--|
|-----------------0-----0--0--------------0-----0--0--|
|-----------------9-----9--9--------------9-----9--9--|
|-----9-----9-----9-----9--9--9-----9-----9-----9--9--|
|-----7-----7-----7-----7--7--7-----7-----7-----7--7--|
|-----0-----0-----0-----0--0--0-----0-----0-----0--0--|

      1     &     2     &     3     &     4     &
|-----------------0-----0--0--------------0-----0--0--|
|-----------------0-----0--0--------------0-----0--0--|
|-----------------9-----9--9--------------9-----9--9--|
|-----9-----9-----9-----9--9--9-----9-----9-----9--9--|
|-----7-----7-----7-----7--7--7-----7-----7-----7--7--|
|-----0-----0-----0-----0--0--0-----0-----0-----0--0--|

      1     &     2     &     3     &     4     &
|-----------------0-----0--0--------------0-----0--0--|
|-----------------0-----0--0--------------0-----0--0--|
|-----------------9-----9--9--------------9-----9--9--|
|-----9-----9-----9-----9--9--9-----9-----9-----9--9--|
|-----7-----7-----7-----7--7--7-----7-----7-----7--7--|
|-----0-----0-----0-----0--0--0-----0-----0-----0--0--|

      1     &     2     &     3     &     4     &
|-----------------0-----0--0--------------0-----0--0--|
|-----------------0-----0--0--------------0-----0--0--|
|-----------------9-----9--9--------------9-----9--9--|
|-----9-----9-----9-----9--9--9-----9-----9-----9--9--|
|-----7-----7-----7-----7--7--7-----7-----7-----7--7--|
|-----0-----0-----0-----0--0--0-----0-----0-----0--0--|

      1     &     2     &     3     &     4     &
|-----------------0-----0--0--------------0-----0--0--|
|-----------------0-----0--0--------------0-----0--0--|
|-----------------9-----9--9--------------9-----9--9--|
|-----9-----9-----9-----9--9--9-----9-----9-----9--9--|
|-----7-----7-----7-----7--7--7-----7-----7-----7--7--|
|-----0-----0-----0-----0--0--0-----0-----0-----0--0--|

      1     &     2     &     3     &     4     &
|-----------------0-----0--0--------------0-----0--0--|
|-----------------0-----0--0--------------0-----0--0--|
|-----------------6-----6--6--------------6-----6--6--|
|-----6-----6-----6-----6--6--6-----6-----6-----6--6--|
|-----4-----4-----4-----4--4--4-----4-----4-----4--4--|
|-----------------------------------------------------|

      1     &     2     &     3     &     4     &
|-----------------0-----0--0--------------0-----0--0--|
|-----------------0-----0--0--------------0-----0--0--|
|-----------------4-----4--4--------------4-----4--4--|
|-----4-----4-----4-----4--4--4-----4-----4-----4--4--|
|-----2-----2-----2-----2--2--2-----2-----2-----2--2--|
|-----------------------------------------------------|

      1     &     2     &     3     &     4     &
|-----0-----------------------------------------------|
|-----0-----------------------------------------------|
|-----9-----------------------------------------------|
|-----9-----------------------------------------------|
|-----7-----------------------------------------------|

7. Rusted Wheel
Just the chords on this one.
Chords: G - A - Bm (the whole song through)

G       A           Bm             G
  So you  can’t hold a star in your hand though
A                Bm
  at least you can hold on to another plan
G        A           Bm
 rusted wheel planted still
G      A         Bm
 i can  tell it's  summer from the
G       A                 Bm
 size of the bugs that fly through my window flying through my window

G       A           Bm
rusted wheel planted still
G       A           Bm
rusted wheel can't move on

G     A         Bm
 i can tell it's winter from the
G        A           Bm
  size of the lump in my throat got a lump in my throat

G       A           Bm
rusted wheel planted still
G       A           Bm
rusted wheel can't move on

         G        A           Bm
and it feels just like the ground
but trapped in another way
just still in the ground

and it feels just like the ground
and trapped in another way
just still in the ground

so you can't hold a star in your hand though
at least you can move on to that better plan

rusted wheel planted still
rusted wheel can't move on...

8.  Dream at Tempo 119
e|12-------12-------12--------12--------15-------15-----------------------|
b|---13-------13-------13--------13--------13-----------------------------|
g|------14-------14-------14--------14--------14--------------------------|
d|------------------------------------------------------------------------|
a|------------------------------------------------------------------------|
e|------------------------------------------------------------------------|x2

e|--13-------13-------13-------13--------15-------15----------------------|
b|-----13-------13-------13-------13--------13----------------------------|
g|--------14-------14-------14-------14--------14-------------------------|
d|------------------------------------------------------------------------|
a|------------------------------------------------------------------------|
e|------------------------------------------------------------------------|

e|------------------------------------------------------------------------|
b|------------------------------------------------------------------------|
g|------------------------------------------------------------------------|
d|--3-3-3-3-3-3-3-3-3-3-3-3-3-3-3-3-3-3-3-3-3-3-3-3--5-5-5-/-7------------|
a|--3-3-3-3-3-3-3-3-3-3-3-3-3-3-3-3-3-3-3-3-3-3-3-3--5-5-5-/-7-----7^-----|
e|--1-1-1-1-1-1-1-1-1-1-1-1-1-1-1-0-1-1-1-1-1-1-1-1--3-0-3-/-5------------|


e|--------------------------------------------------------------------------|
B|--------------------------------------------------------------------------|
G|---------------------9-9-9h10-9----------------------------------9-12-9---|
D|10-10h12-10-10h12-10------------12-10-10-10-10h12-10-10h12-10/12--------12|
A|--------------------------------------------------------------------------|
E|--------------------------------------------------------------------------|


e|--------------------------------------------------------------------------|
B|--------------------------------------------------------------------------|
G|--------------------------------------------------------------------------|
D|10-10h12-10-10h12-10-------10-10h12-10-10h12-10---------------------------|
A|---------------------12-8-----------------------12-8----------------------|
E|--------------------------------------------------------------------------|

e|--------------------------------------------------------------------------|
B|--------------------------------------------------------------------------|
G|--------------------------------------------------------------------------|
D|--7~------9~-------10~----------------------------------------------------|
A|--------------------------------------------------------------------------|
E|--------------------------------------------------------------------------|

10. Three Seed

Riff 1
e|----14---------------17-----14-------0-----------15----14-----------------|
B|-------15----17-15------15-----15------15--------------------17----15-----|
G|-16-------16-------16------16-----16------16--16----16----16----16----16--|
D|--------------------------------------------------------------------------|
A|--------------------------------------------------------------------------|
E|--------------------------------------------------------------------------|

e|----14---------------17-----14-------0-----------15----14---------15h17-14|
B|-------15----17-15------15-----15------15--------------------17-----------|
G|-16-------16-------16------16-----16------16--16----16----16----16--------|
D|--------------------------------------------------------------------------|
A|--------------------------------------------------------------------------|
E|--------------------------------------------------------------------------|

Riff 2
e|--------------------------------------------------------------------------|
B|--------------------------------------------------------------------------|
G|--------------------------------------------------------------------------|
D|-4---4---4--4--/--7--7-7-7rb----------------------------------------------|
A|-0h2---2----2--/--5--5-5-5rb---5------------------------------------------|
E|-------------------------------3------------------------------------------|

Bridge  2:45
e|------------------------------------0-----0-----0-----------------6-6h7--9|
B|--------------------------------------------------------7--8--------------|
G|--------------------------------------7-----7-----7------------7----------|
D|-7--7---9--9---4--4---------------9-----9-----9---------------------------|
A|-5--5---7--7---2--2---4/5-5--2--------------------------------------------|
E|----------------------2/3-3--0--------------------------------------------|


Lead  3:07
e|--------------------------------------------------------------------------|
B|-0-3-0-5-0-7-0-8-0-10/12--0-3-0-5-0-7-0-8-0-10/12--0-3-0-5-0-7-0-8-0-10/12|
G|--------------------------------------------------------------------------|
D|--------------------------------------------------------------------------|
A|--------------------------------------------------------------------------|
E|--------------------------------------------------------------------------|

e|--------------------------------------------------------------------------|
B|-0-3-0-5-0-7-0-8-0-7/5---0-3-0-5-0-7-0-8-0-10/12---0-3-0-7-0-5-0-3-0-8/7--|
G|--------------------------------------------------------------------------|
D|--------------------------------------------------------------------------|
A|--------------------------------------------------------------------------|
E|--------------------------------------------------------------------------|

e|--------------------------------------------------------------------------|
B|-0-3-0-5-0-7-0-8-0-10/12^-------------------------------------------------|
G|--------------------------------------------------------------------------|
D|--------------------------------------------------------------------------|
A|--------------------------------------------------------------------------|
E|--------------------------------------------------------------------------|

  3:33
e|--------------------------------------------------------------------------|
B|----------------------------12---10---------------------------------------|
G|-4----4----7-7-7-7rb------------------------------------------------------|
D|-4----4----7-7-7-7rb----------------12------------------------------------|
A|-0h2--2----5-5-5-5rb-----10---10------------------------------------------|
E|--------------------------------------------------------------------------|

e|--------------------------------------------------------------------------|
B|----------------------------12---10----10h12--10--------------------------|
G|-4----4----7-7-7-7rb------------------------------------------------------|
D|-4----4----7-7-7-7rb-----------------------------12rb---------------------|
A|-0h2--2----5-5-5-5rb-----10---10----10------------------------------------|
E|--------------------------------------------------------------------------|

11. Common Reactor

Intro: C F C F Am Dm F

                   C
It’s the common reactor
                   F
it’s the long way out
                       C
it’s the stream of a motion blur
                            F
that swirls around till you drown
                       Am
but I couldn’t put it down
                      Dm
no i couldn’t put it down
                  F
no i couldn’t put it down

                      C
it’s the colorless picture
                   F
in a heart shaped frame
                     C
the silhouette of a doe eyed girl
                        F
who at one point had a name
                       Am
but I couldn’t put it down
                      Dm
no I couldn’t put it down
                      F
no I couldn’t put it down

        C
let’s break the window panes
                   F
and separate the walls from all the nails
                    Em
cos maybe if we’re loud we’ll stay alive
                 F
while everybody wants to join the fight
              C
but now it’s too late


Break: F Em F

                      C
brush away all the memories
                  F
keep the cries curbside
                         C
i’ll be ashing on the images
                            F
that have all been caught inside
                      Am
but i couldn’t put it down
                      Dm
no i couldn’t put it down
                      F
no i couldn’t put it down

       C
let’s break the window panes
                  F
and separate the walls from all the nails
                    Em
cos maybe if we’re loud we’ll stay alive
                  F
while everybody wants to join the fight
                  C
cut even if we barricade the door and seal it with the
  F
blood found on the floor
                       Em
we’re always going to cross the finish line
                 F
while everybody wants to run and hide
             C
but now it’s too late


Interlude: Am F C Am F C Am F C Am Bb A

       C
let’s break the window panes
                  F
and separate the walls from all the nails
                    Em
cos maybe if we’re loud we’ll stay alive
                  F
while everybody wants to join the fight
                  C
cut even if we barricade the door and seal it with the
  F
blood found on the floor
                       Em
we’re always going to cross the finish line
                 F
while everybody wants to run and hide
             C
but now it’s too late


Fade: C
comments
print report bad tab
I want to post or [tab]
guest
You may want to rate the tab now too:
select rating
Please do not post tabs as comments. Select "correction" instead!