Oops, an error
Loading. Please wait.

Lazy Eye Tab

ver5
ver5
More versions @911Tabs.com
38,153 views 150 this week
3 commentsread comments
1 2 3 4 5
excellent!
x 11
Autoscroll
+/-
esc
set tempo
stop
Contributor
Difficulty
Hey! There's an official Ultimate Guitar app which is ideal
for learning songs when you're away from computer. Get the app
WARNING: You are trying to view
                                    content from Ultimate-Guitar.com
                                    in an unauthorized application,
                                    which is prohibited.

                                    Please use an official Ultimate
                                    Guitar Tabs application for iPhone,
                                    iPad or Android to access legitimate
                                    chords, guitar, bass, and drum tabs
                                    from Ultimate-Guitar.com database.

                                    Type "ultimate guitar tabs" in Apple
                                    App Store's or Android Market's
                                    search to find the application.
Okay, this is Lazy Eye by Silversun Pickups. This isn’t the actual 100%
correct way to play it, but this is how I play it. I think it would be about
95% right =\. In some parts I took the two guitars parts and put them
together so you can play it all on one guitar. There are other parts though
like the solo and stuff where you would need someone else to play that part.
In the second measure of the rhythm parts, there is a part right at the end
where it bends from 11 to 12. It doesn’t always go like that every time it’s
played and instead sometimes it just doesn’t do the bend. I’m not talking
about the bends in rhythm part V though.. those ones stay. This is just a
list of all the parts I use and at the bottom of the page is the order to
play them. Now.. the part in the song where the guitars don’t play any of
these parts, but instead play a totally different part with weird effects and
such.. I didn’t tab those. This tab is mainly just an acoustic version I
guess and I would usually just skip that part… or if you have a bassist just
let him play his part, lol. Either that or you can get that part from someone
else. Im sure its easy to figure out.. I just don’t want to. If you have any
questions, comment or message me or whatever.. I’ll try to help.

Guide

h = Hammer on
p = Pull off
b = Bend
r = Realease
/ = Slide up
\ = Slide down
~ = Vibrato
X = Fret hand mute


Rhythm Part I
      1     &     2     &     3     &     4     &
|-----------------------------------------------------|
|-----------------------------------------------------|
|-----------------------------------------------------|
|-----------------------------------------------------|
|-----11----11----11----11----11----11----11----11----|
|-----0-----0-----0-----0-----0-----0-----0-----0-----|

      1     &     2     &     3     &     4     &
|-----------------------------------------------------|
|-----------------------------------------------------|
|-----------------------------------------------------|
|-----------------------------------------------------|
|-----9-----9-----9-----9h-11-------11—---11b12-11-11-|
|-----0-----0-----0-----0-----------0-----0-----0--0--|

Rhythm Part II
      1     &     2     &     3     &     4     &
|-----------------------------------------------------|
|-----------------------------------------------------|
|-----------------------------------------------------|
|-----------------------------------------------------|
|-----11----11----11----11----11----11----11----11----|
|-----0-----0-----0-----0-----0-----0-----0-----0-----|

      1     &     2     &     3     &     4     &
|-----------------------------------------------------|
|-----------------------------------------------------|
|-----------------------------------------------------|
|-----------------------------------------------------|
|-----9-----7--/--9-----9h11--------11----11b12-11-11-|
|-----0-----0-----------0-----------0-----0-----0--0--|

Rhythm Part III 
      1     &     2     &     3     &     4     &
|-----------------------------------------------------|
|-----------------------------------------------------|
|-----------------------------------------------------|
|-----------------------------------------------------|
|-----11----11----11----11----11----11----11----11----|
|-----0-----0-----0-----0-----0-----0-----0-----0-----|

      1     &     2     &     3     &     4     &
|-----------------------------------------------------|
|-----------------------------------------------------|
|-----------------------------------------------------|
|-----9-----11-p--9-----------------------------------|
|-----9-----9-----------9h-11-------11----11b12-11-11-|
|-----------------------0-----------0-----0-----0--0--|


Rhythm Part IV
      1     &     2     &     3     &     4     &
|-----------------------------------------------------|
|-----------------------------------------------------|
|-----------------------------------------------------|
|-----11----11----11----11----11----11----11----11----|
|-----11----11----11----11----11----11----11----11----|
|-----9-----9-----9-----9-----9-----9-----9-----9-----|

      1     &     2     &     3     &     4     &
|-----------------------------------------------------|
|-----------------------------------------------------|
|-----------------------------------------------------|
|-----9-----9-----9-----9-----9-----9-----9-----9-----|
|-----9-----9-----9-----9-----9-----9-----9-----9-----|
|-----7-----7-----7-----7-----7-----7-----7-----7-----|

Solo I
      1     &     2     &     3     &     4     &
|-----------------------------------------------------|
|-----------------------------------------------------|
|-----9-----9-----------------------------------------|
|-----------------12----9-----------7h-9--7-----6-----|
|-----------------------------------------------------|
|-----------------------------------------------------|

      1     &     2     &     3     &     4     &
|-----------------------------------------------------|
|-----R-----------------------------------------------|
|-----e-----------------------------------------------|
|-----s-----------9-----------------9-----------------|
|-----t-----9h-11-------11----9h-11-------11----9-----|
|-----------------------------------------------------|

      1     &     2     &     3     &     4     &
|-----------------------------------------------------|
|-----------------------------------------------------|
|-----------------------------------------------------|
|-----------------------------------------------------|
|-----7--\--6-----6-----------------------------------|
|-----------------------7-----------7-----7-----7--7--|

      1     &     2     &     3     &     4     &
|-----------------------------------------------------|
|-----------------------------------------------------|
|-----9-----9-----9-----9-----9-----9-----9-----9--9--|
|-----------------------------------------------------|
|-----7-----7-----7-----7-----7-----7-----7-----7--7--|
|-----------------------------------------------------|

      1     &     2     &     3     &     4     &
|-----------------------------------------------------|
|-----------------------------------------------------|
|-----11-------11-11-11-13----------13-13-13b14r13----|
|-----------------------------------------------------|
|-----9--------9--9--9--11----------11-11-11b12r11----|
|-----------------------------------------------------|

      1     &     2     &     3     &     4     &
|-----------------------------------------------------|
|-----------------------------------------------------|
|-----9-----9-----9-----9-----9-----9-----9-----9--9--|
|-----------------------------------------------------|
|-----7-----7-----7-----7-----7-----7-----7-----7--7--|
|-----------------------------------------------------|

      1     &     2     &     3     &     4     &
|-----------------------------------------------------|
|-----------------------------------------------------|
|-----11----9-----11----13----------13-13-13b14r13----|
|-----------------------------------------------------|
|-----9-----7-----9-----11----------11-11-11b12r11----|
|-----------------------------------------------------|

Fill I
      1     &     2     &     3     &     4     &
|-----------------------------------------------------|
|-----------------------------------------------------|
|-----9-----9-----------------------------------------|
|------------------12---9~~~~~~~~~~~~~~~~~9\----------|
|-----------------------------------------------------|
|-----------------------------------------------------|

Rhythm Part V
      1     &     2     &     3     &     4     &
|-----------------------------------------------------|
|-----X--X--------------------------------------------|
|-----X—-X--13----13----13-13-13----13----13----13-13-|
|-----X--X--------------------------------------------|
|-----X—-X--11----11----11-11-11----11----11----11-11-|
|-----------------------------------------------------|

      1     &     2     &     3     &     4     &
|-----------------------------------------------------|
|-----------------------------X-----------------------|
|-----11-------11-11-11-13----X--13-13----13b14r13----|
|-----------------------------X-----------------------|
|-----9--------9--9--9--11----X--11-11----11b12r11----|
|-----------------------------------------------------|

      1     &     2     &     3     &     4     &
|-----------------------------------------------------|
|-----X-----------------------------------------X-----|
|-----X--13-13----13----13-13-13----13----13----X--13-|
|-----X-----------------------------------------X-----|
|-----X--11-11----11----11-11-11----11----11----X--11-|
|-----------------------------------------------------|

      1     &     2     &     3     &     4     &
|-----------------------------------------------------|
|-----------------------------X-----------------------|
|-----11-------11-11-13-13----X--9--9-----9-----9--9--|
|-----------------------------X-----------------------|
|-----9--------9--9--11-11----X--7--7-----7-----7--7--|
|-----------------------------------------------------|

      1     &     2     &     3     &     4     &
|-----------------------------------------------------|
|-----X--X--------------------------------------------|
|-----X—-X--13----13----13-13-13----13----13----13-13-|
|-----X--X--------------------------------------------|
|-----X—-X--11----11----11-11-11----11----11----11-11-|
|-----------------------------------------------------|

|-----------------------------------------------------|
|-----------------------------X-----------------------|
|-----11-------11-11-11-13----X--13-13----13b14r13----|
|-----------------------------X-----------------------|
|-----9--------9--9--9--11----X--11-11----11b12r11----|
|-----------------------------------------------------|

      1     &     2     &     3     &     4     &
|-----------------------------------------------------|
|-----X--X--------------------------------------------|
|-----X—-X--13----13----13-13-13----13----13----11----|
|-----X--X--------------------------------------------|
|-----X—-X--11----11----11-11-11----11----11----9-----|
|-----------------------------------------------------|

      1     &     2     &     3     &     4     &
|-----------------------------------------------------|
|-----------------------------------------------------|
|-----------9-----/-----13----------13----13----13-13-|
|-----------------------------------------------------|
|-----------7-----/-----11----------11----11----11-11-|
|-----------------------------------------------------|

Solo II
      1     &     2     &     3     &     4     &
|-----------------------------------------------------|
|-----------------------------------------------------|
|------—----------------------------------------------|
|-----9-----------------------------------------------|
|------—----------------------------------------------|
|-----------------------------------------------------|

      1     &     2     &     3     &     4     &
|-----------------------------------------------------|
|-----------------------------------------------------|
|------—----------------------------------------------|
|-----9-----7-----------6-----------6h-7p-6-----------|
|------—----------------------------------------7-----|
|-----------------------------------------------------|

      1     &     2     &     3     &     4     &
|-----------------------------------------------------|
|-----------------------------------------------------|
|------—----------------------------------------------|
|-----------9-----------------9-----------------------|
|-----9h-11-------11----9h-11-------11----9-----7-----|
|-----------------------------------------------------|

      1     &     2     &     3     &     4     &
|-----------------------------------------------------|
|-----------------------------------------------------|
|------—----------------------------------------------|
|-----------------------------------------------------|
|-----6—----6h7p-6------------------------------------|
|-----------------------7-----------7-----7-----7--7--|

      1     &     2     &     3     &     4     &
|-----------------------------------------------------|
|-----------------------------------------------------|
|------—----------------------------------------------|
|-----------------------------------------------------|
|-----7/----11----11----11----11----11----11----11----|
|-----------------------------------------------------|

      1     &     2     &     3     &     4     &
|-----------------------------------------------------|
|-----------------------------------------------------|
|------—----------------------------------------------|
|-----------------------------------------------------|
|-----9—----9-----9-----9p-11-------11----11b12-11-11-|
|-----------------------------------------------------|

      1     &     2     &     3     &     4     &
|-----------------------------------------------------|
|-----------------------------------------------------|
|------—----------------------------------------------|
|-----------------------------------------------------|
|-----11----11----11----11----11----11----11----11----|
|-----------------------------------------------------|

      1     &     2     &     3     &     4     &
|-----------------------------------------------------|
|-----------------------------------------------------|
|------—----------------------------------------------|
|-----------------------------------------------------|
|-----9—----7--/--9-----9h-11-------11----11----11-11-|
|-----------------------------------------------------|

Bridge
      1     &     2     &     3     &     4     &
|-----------------0-----0--0--------------0-----0--0--|
|-----------------0-----0--0--------------0-----0--0--|
|------—----------9-----9--9--------------9-----9--9--|
|-----9-----9-----9-----9--9--9-----9-----9-----9--9--|
|-----7—----7-----7-----7--7--7-----7-----7-----7--7--|
|-----0-----0-----0-----0--0--0-----0-----0-----0--0--|

      1     &     2     &     3     &     4     &
|-----------------0-----0--0--------------0-----0--0--|
|-----------------0-----0--0--------------0-----0--0--|
|------—----------9-----9--9--------------9-----9--9--|
|-----9-----9-----9-----9--9--9-----9-----9-----9--9--|
|-----7—----7-----7-----7--7--7-----7-----7-----7--7--|
|-----0-----0-----0-----0--0--0-----0-----0-----0--0--|

      1     &     2     &     3     &     4     &
|-----------------0-----0--0--------------0-----0--0--|
|-----------------0-----0--0--------------0-----0--0--|
|------—----------9-----9--9--------------9-----9--9--|
|-----9-----9-----9-----9--9--9-----9-----9-----9--9--|
|-----7—----7-----7-----7--7--7-----7-----7-----7--7--|
|-----0-----0-----0-----0--0--0-----0-----0-----0--0--|

      1     &     2     &     3     &     4     &
|-----------------0-----0--0--------------0-----0--0--|
|-----------------0-----0--0--------------0-----0--0--|
|------—----------9-----9--9--------------9-----9--9--|
|-----9-----9-----9-----9--9--9-----9-----9-----9--9--|
|-----7—----7-----7-----7--7--7-----7-----7-----7--7--|
|-----0-----0-----0-----0--0--0-----0-----0-----0--0--|

      1     &     2     &     3     &     4     &
|-----------------0-----0--0--------------0-----0--0--|
|-----------------0-----0--0--------------0-----0--0--|
|------—----------9-----9--9--------------9-----9--9--|
|-----9-----9-----9-----9--9--9-----9-----9-----9--9--|
|-----7—----7-----7-----7--7--7-----7-----7-----7--7--|
|-----0-----0-----0-----0--0--0-----0-----0-----0--0--|

      1     &     2     &     3     &     4     &
|-----------------0-----0--0--------------0-----0--0--|
|-----------------0-----0--0--------------0-----0--0--|
|------—----------9-----9--9--------------9-----9--9--|
|-----9-----9-----9-----9--9--9-----9-----9-----9--9--|
|-----7—----7-----7-----7--7--7-----7-----7-----7--7--|
|-----0-----0-----0-----0--0--0-----0-----0-----0--0--|

      1     &     2     &     3     &     4     &
|-----------------0-----0--0--------------0-----0--0--|
|-----------------0-----0--0--------------0-----0--0--|
|------—----------9-----9--9--------------9-----9--9--|
|-----9-----9-----9-----9--9--9-----9-----9-----9--9--|
|-----7—----7-----7-----7--7--7-----7-----7-----7--7--|
|-----0-----0-----0-----0--0--0-----0-----0-----0--0--|

      1     &     2     &     3     &     4     &
|-----------------0-----0--0--------------0-----0--0--|
|-----------------0-----0--0--------------0-----0--0--|
|------—----------9-----9--9--------------9-----9--9--|
|-----9-----9-----9-----9--9--9-----9-----9-----9--9--|
|-----7—----7-----7-----7--7--7-----7-----7-----7--7--|
|-----0-----0-----0-----0--0--0-----0-----0-----0--0--|

      1     &     2     &     3     &     4     &
|-----------------0-----0--0--------------0-----0--0--|
|-----------------0-----0--0--------------0-----0--0--|
|------—----------9-----9--9--------------9-----9--9--|
|-----9-----9-----9-----9--9--9-----9-----9-----9--9--|
|-----7—----7-----7-----7--7--7-----7-----7-----7--7--|
|-----0-----0-----0-----0--0--0-----0-----0-----0--0--|

      1     &     2     &     3     &     4     &
|-----------------0-----0--0--------------0-----0--0--|
|-----------------0-----0--0--------------0-----0--0--|
|------—----------9-----9--9--------------9-----9--9--|
|-----9-----9-----9-----9--9--9-----9-----9-----9--9--|
|-----7—----7-----7-----7--7--7-----7-----7-----7--7--|
|-----0-----0-----0-----0--0--0-----0-----0-----0--0--|

      1     &     2     &     3     &     4     &
|-----------------0-----0--0--------------0-----0--0--|
|-----------------0-----0--0--------------0-----0--0--|
|------—----------6-----6--6--------------6-----6--6--|
|-----6-----6-----6-----6--6--6-----6-----6-----6--6--|
|-----4—----4-----4-----4--4--4-----4-----4-----4--4--|
|-----------------------------------------------------|

      1     &     2     &     3     &     4     &
|-----------------0-----0--0--------------0-----0--0--|
|-----------------0-----0--0--------------0-----0--0--|
|------—----------4-----4--4--------------4-----4--4--|
|-----4-----4-----4-----4--4--4-----4-----4-----4--4--|
|-----2—----2-----2-----2--2--2-----2-----2-----2--2--|
|-----------------------------------------------------|

      1     &     2     &     3     &     4     &
|-----0-----------------------------------------------|
|-----0-----------------------------------------------|
|-----9—----------------------------------------------|
|-----9-----------------------------------------------|
|-----7—----------------------------------------------|
|-----0-----------------------------------------------|


Order of the Parts

Rhythm Part I    3x
Rhythm Part II
Rhythm Part IV
Rhythm Part III  4x
Rhythm Part I    2x
Rhythm Part IV
Rhythm Part III  2x
Rhythm Part II
Rhythm Part I
Rhythm Part IV
Rhythm Part I    3x         Second measure, start Solo I.
Rhythm Part II   3x
Rhythm Part IV
Rhythm Part I               Second measure, play Fill I.
Rhythm Part II
Rhythm Part I
Rhythm Part IV
Rhythm Part I    3x         Start Rhythm Part V.
Rhythm Part II
Rhythm Part IV
Rhythm Part III  2x
Rhythm Part IV
Rhythm Part I               Start Solo II.
Rhythm Part II
Rhythm Part I
Rhythm Part II
Rhythm Part IV

Either play nothing here for 4 
measures [right way] or play
Rhythm Part I    2x

Rhythm Part IV
Bridge
Rhythm Part I
Rhythm Part III
Rhythm Part I
Rhythm Part II

First beat of the next measure, just strum this once and let it ring.

|-------|
|-------|
|-------|
|-------|
|---11--|
|---0---|

Or skip this part with the effects, play Rhythm Part IV, and jump into the outro to end the song.

Rhythm Part III  4x
Rhythm Part I    3x
Rhythm Part II

Remember.. this isn’t 100% right way to play it, but this IS a way you can
play it. The only things different from the real song is that I put 2 guitar
parts and molded them into one, and on the bridge, the chords are a little
bit different.. but I like them this way.
comments
print report bad tab
3 comments total.
0 reply
changobilly22 wrote on June 23 2010, 01:36 pm

For the solo, try

G-11/14-14-14-12-------------
A----------------14-14-12-11-
E----------------------------

G-----9-------9--------------
A-9h11-11-9h11-11-9----------
E-------------------12-11-9-7

its along he same lines as your tabs and its a whole lot easier than jumping all those strings, well, for me

-1 reply
00_hns_00 wrote on October 10 2011, 11:31 pm

its a whole step sharp on the beginning, didn't bother reading the rest since i saw this huge mistake.

0 reply
InhaleTheFlame wrote on October 11 2011, 12:55 am

Not to be rude or anything 00_hsn_00, but I don't think you know what you're talking about :S it isn't sharp in the beginning.. If it was sharp anywhere it would last through the whole song. Did you even try PLAYING it to see how it sounded?
Sorry you didn't like my tab.
-ITF

I want to post or [tab]
guest
You may want to rate the tab now too:
select rating
Please do not post tabs as comments. Select "correction" instead!