Oops, an error
Loading. Please wait.

Ayre No 2 A Fantasia For Two Instruments Tab

30 views 1 this week
no commentswrite comment
1 2 3 4 5
please rate
add to favorites launch autoscroll
font size
0
reset
Autoscroll
+/-
esc
set tempo
stop
Contributor
WARNING: You are trying to view
                                    content from Ultimate-Guitar.com
                                    in an unauthorized application,
                                    which is prohibited.

                                    Please use an official Ultimate
                                    Guitar Tabs application for iPhone,
                                    iPad or Android to access legitimate
                                    chords, guitar, bass, and drum tabs
                                    from Ultimate-Guitar.com database.

                                    Type "ultimate guitar tabs" in Apple
                                    App Store's or Android Market's
                                    search to find the application.
Ayre No 2 (A fantasia for two instruments) - Simon Ives (1600-1662)

duet - arranged by Dana Hawkes DiAnda - http://www.earlyguitar.net

tabbed by Weed - weed@wussu.com - 15 April 2011

see notes below tab     tuning: E A D G B E     key: A     time: 4/4


1  |   |   |   |     |   |   |   |     |   |   |   |     |   |   |   |
e|-----------------|-----------------|-----------------|-----------------|
B|-----------------|-----------------|-----------------|-----------------|
G|-----------------|-----------------|-----------------|-----------------|
D|-----------------|-----------------|-2-------0---2---|-----------------|
A|-----------------|-0-----2-4---2p0-|-----4-----------|-0---2---4---0---|
E|-----------------|-----------------|-----------------|-----------------|
 |
e|-----------------|-0-------0-------|-----0---2---4---|-5---4p2-0-------|
B|-------0-2---0---|-----2-3-----3p2-|-0---------------|-------------2===|
G|-2-------------2-|-----------------|-----------------|-----------------|
D|-----------------|-----------------|-----------------|-----------------|
A|-----------------|-----------------|-----------------|-----------------|
E|-----------------|-----------------|-----------------|-----------------|

                                                             cII.........
5  |   |   |   |     |   |   |   |     |   |   |   |     |   |   |   |
e|-----------------|-----------------|-----------------|-----------------|
B|-----------------|-----------------|-----------------|---------2-------|
G|-----------------|-----------------|-----------------|-----2-4-----4p2-|
D|-2---------2-0---|-0---------0-----|-----------------|-----------------|
A|---------------4-|-------------4-2-|-4-------2-------|-0=======--------|
E|-----------------|-----------------|-----------------|-----------------|
 |
e|-----------------|-----------------|-----------------|---------0-------|
B|===2-0---0=======|===0-------------|-----------------|---0-2-3-----4p2-|
G|-------2---------|-----2-1-2=======|===2-1---1-2---1-|-2---------------|
D|-----------------|-----------------|-------4---------|-----------------|
A|-----------------|-----------------|-----------------|-----------------|
E|-----------------|-----------------|-----------------|-----------------|


9  |   |   |   |     |   |   |   |     |   |   |   |     |   |   |   |
e|-----------------|-----------------|-----------------|-----------------|
B|-0---------------|---------0=======|===0-------------|-----------------|
G|-----1-----------|-----1-2---------|-----2-1-2=======|===2-1---1-2---1-|
D|---------4-------|-2-4-------------|-----------------|-------4---------|
A|-----------------|-----------------|-----------------|-----------------|
E|-----------------|-----------------|-----------------|-----------------|
 |
e|-----0-----------|-0=======--------|-----------------|-----------------|
B|-4-0---------4---|-----------------|-----------------|-----------------|
G|-----------------|-----------------|-----------------|-----------------|
D|-----------------|-----2-----2-0---|-0---------0-----|-----------------|
A|-----------------|---------------4-|-------------4-2-|-4-------2-------|
E|-----------------|-----------------|-----------------|-----------------|

                     3 2 3       1     2                         4
13 |   |   |   |     |   |   |   |     |   |   |   |     |   |   |   |
e|---------0-------|-----------------|-----4-5-7---4===|===4-------------|
B|---0-2h3-----4p2-|-4---5-------4---|-5h7-------------|-----7-5-7=======|
G|-2---------------|---4-------------|-----------------|-----------------|
D|-----------------|-----------------|-----------------|-----------------|
A|-----------------|-----------------|-----------------|-----------------|
E|-----------------|-----------------|-----------------|-----------------|
 |
 |     cII.........
e|-----------------|-----------------|-----------------|-----------------|
B|---------2-------|-0---------------|-----------------|-0---------0-----|
G|-----2-4---4p2---|-----1-----------|---------1-------|-------------2-1-|
D|-----------------|---------4-------|-2---2-4-----2---|-----------------|
A|-0=======--------|-----------------|-----------------|-----------------|
E|-----------------|-----------------|-----------------|-----------------|

           2             1 3           2
17 |   |   |   |     |   |   |   |     |   |   |   |     |   |   |   |
e|-----------------|-----------------|-----4-5-7=======|===7-5-4-5=======|
B|===7-5-4-5=======|===5-4---4-5---4-|-5-7-------------|-----------------|
G|-----------------|-------6---------|-----------------|-----------------|
D|-----------------|-----------------|-----------------|-----------------|
A|-----------------|-----------------|-----------------|-----------------|
E|-----------------|-----------------|-----------------|-----------------|
 |
e|-----------------|-----------------|-----0-----0-----|-----------------|
B|-----------------|-----------------|-------------3-2-|-3---------3-2-0-|
G|-2---------2-1---|-1---------------|-----------------|-----------------|
D|---------------4-|---------4-------|-2=======--------|-----------------|
A|-----------------|-----------------|-----------------|-----------------|
E|-----------------|-----------------|-----------------|-----------------|

                     2
                     3
21 |   |   |   |     |   |   |   |     |   |   |   |     |   |   |   |
e|===5-4---4-5---4-|-5---------------|-0===============|-0===============|
B|-------7---------|-----------------|-----------------|-----------------|
G|-----------------|-6---------------|-2-----------1---|-2-----------1---|
D|-----------------|-------------2---|-----------------|-----------------|
A|-----------------|-----------------|-----------------|-----------------|
E|-----------------|-----------------|-----------------|-----------------|
 |
e|-----------------|-------------0---|-----------------|-----------------|
B|-2-------0-------|-----------------|-2-----------0---|-2-----------0---|
G|-----------------|-----------------|-----------------|-----------------|
D|---------2-------|-2---------------|-----------------|-----------------|
A|-----------------|-0---------------|-----------------|-----------------|
E|-----------------|-----------------|-----------------|-----------------|


25 |   |   |   |     |   |   |   |     |   |   |   |     |   |   |   |
e|-0===============|-----------------|-----------------|-----------------|
B|-----------------|-0---------------|-----------------|-----------------|
G|-2---1---2---2---|-----------------|-----------------|-------------2---|
D|-------------4---|-2-----------4---|-2---0-----------|-----------------|
A|-----------------|-----------------|---------4---2---|-0---------------|
E|-----------------|-----------------|-----------------|-----------------|
 |
e|-----------------|--0----------5---|-4---2---0-------|-----------------|
B|-2---0---2---4---|-----------------|-------------3---|-2-----------2---|
G|-----------------|-----------------|-----------------|-----------------|
D|-----------------|-----------------|-----------------|-----------------|
A|-----------------|-----------------|-----------------|-----------------|
E|-----------------|-----------------|-----------------|-----------------|


29 |   |   |   |     |   |   |   |     |   |   |   |     |   |   |   |
e|-----------------|-----------------|-----------------|-----------------|
B|-----------------|-----------------|-----------------|-----------------|
G|-1---------------|-1---------------|-----------------|-----------------|
D|-----4---2---0---|-----------------|-----------------|-----------------|
A|-----------------|-4-----------0---|-----------------|-0-----------2---|
E|-----------------|-----------------|-3---------------|-----------------|
 |
e|-----------------|---------0=======|=========--------|-----------------|
B|--0--------------|-----2-----------|---------3-------|-2---------2-0---|
G|------2---1------|-----------------|-----------------|---------------2-|
D|--------------4--|-3---------------|-----------------|-----------------|
A|-----------------|-----------------|-----------------|-----------------|
E|-----------------|-----------------|-----------------|-----------------|


33 |   |   |   |     |   |   |   |     |   |   |   |     |   |   |   |
e|-----------------|-----------------|-----------------|-0---------------|
B|-----------------|-----------------|-----------0-2-3-|-----3---2---0-2-|
G|-----------------|-----------------|-----------------|-----------2-----|
D|-----------------|-0---------------|---------2=======|-----------------|
A|-4-------4-------|-------------4---|-2---0-----------|-----------------|
E|-----------------|-----------------|-----------------|-----------------|
 |
e|-----------------|-----------------|-----------------|-----------------|
B|-----------------|-------------0-2-|-3---2---0-------|-----------------|
G|-1-----------1---|-----------2-----|-------------2---|-1-----1-2---1---|
D|-----------------|-4---------------|-----------------|---2-4-----------|
A|-----------------|-----------------|-----------------|-----------------|
E|-----------------|-----------------|-----------------|-----------------|

                     0   3 2 1
37 |   |   |   |     |   |   |   |     |   |   |   |     |   |   |   |
e|-----------------|-0---------------|-------------0---|-5=======--------|
B|-3---2---0-0-2-3-|-----3-2-0---0---|-2---------------|-------------7---|
G|-----------------|-----------2-----|-2===============|-----------------|
D|-----------------|---------2---2---|-----------------|-----------------|
A|-----------------|-----------------|-----------------|-----------------|
E|-----------------|-----------------|-----------------|-----------------|
 |
e|-----------------|-----------------|-----------------|-----------------|
B|---------0-------|-----------------|-----------------|---------0-------|
G|-----1-2-----2---|-1---2-------1---|-2---------------|---------------2-|
D|-4-4-------------|---2-------------|-----------------|-----------------|
A|-----------------|-----------------|---------0-------|-----4-----------|
E|-----------------|-----------------|-----------------|-----------------|


41 |   |   |   |     |   |   |   |     |   |   |   |     |   |   |   |
e|-7-----5-4-------|-5-----4-2-----0-|---------0-------|-----------------|
B|-------------5---|-----------------|-3---0---------3-|-2-------3=======|
G|-----------------|-----------------|-----------------|-----2-----------|
D|-----------------|-----------------|-----------------|-----------------|
A|-----------------|-----------------|-----------------|-----------------|
E|-----------------|-----------------|-----------------|-----------------|
 |
e|---------0-------|-----------------|-----------------|-----------------|
B|---------------3-|-2-------3-----2-|-0---------------|-----------------|
G|-1---------------|-----2-----------|-------2-1-------|-2---------------|
D|-----2-----------|-----------------|-------------2---|---------4-------|
A|-----------------|-----------------|-----------------|---------5-------|
E|-----------------|-----------------|-----------------|-----------------|


45 |   |   |   |     |   |   |   |     |   |   |   |     |   |   |   |
e|-----------------|-----------------|-----------------|---------0-------|
B|=========2-------|-0===============|-----------------|-----0---------2-|
G|-----------------|-----------------|-2-----1---------|-----------------|
D|-----------------|-2---------------|---------4-------|-----------------|
A|-----------------|-----------------|-----------------|-----------------|
E|-----------------|---------0-------|-----------------|-----------------|
 |
e|-----------------|-----------------|-----------------|-----------------|
B|-----------------|-----------------|-----------------|-----------------|
G|-----------------|-----------------|-----------------|-----------------|
D|-6-------7=======|=========6-------|-----------------|-2-----0---------|
A|-7===============|-7===============|-------------2---|---------4---0---|
E|-----------------|-----------------|-----------------|-----------------|


49 |   |   |   |     |   |   |   |     |   |   |   |     |   |   |   |
e|-2-----0---------|-----------------|-------------0---|-----------------|
B|---------3---2---|-0-------0-------|-2---------------|-2-----------0---|
G|-----------------|-----2-----------|-2---------------|-----------------|
D|-----------------|-2=======2-------|-----------------|-----------------|
A|-----------------|-----------------|-----------------|-----------------|
E|-----------------|-----------------|-----------------|-----------------|
 |
e|-----------------|-----------------|-----------------|-0===============|
B|-----------------|-----------------|-----------------|-----------------|
G|-2===============|-----------------|-----------------|-2-----------1---|
D|-0---------------|---------2-------|-2---------------|-----------------|
A|-------4-2---0---|-----0-----------|-0---------------|-----------------|
E|-----------------|-4-------0-------|-------------0---|-----------------|


53 |   |   |   |     |   |   |   |     |   |   |   |     |   |   |   |
e|-----------------|-----------------|-0-----------5---|-4---2---0-------|
B|-2-----------0---|-2---0---2---4---|-----------------|-------------3---|
G|-----------------|-----------------|-----------------|-----------------|
D|-----------------|-----------------|-----------------|-----------------|
A|-----------------|-----------------|-----------------|-----------------|
E|-----------------|-----------------|-----------------|-----------------|
 |
e|-0===============|-0===========----|-----------------|-----------------|
B|-----------------|-----------------|-0---------------|-----------------|
G|-2-----------1---|-2---1---2---2---|-----------------|-----------------|
D|-----------------|-------------4---|-2-----------4---|-2---0-----------|
A|-----------------|-----------------|-----------------|---------4---2---|
E|-----------------|-----------------|-----------------|-----------------|


57 |   |   |   |     |   |   |   |     |   |   |   |     |   |   |   |
e|-----------------|-----------------|---------0=======|=========--------|
B|-2-----------2---|-0---------------|-----2-----------|---------3-------|
G|-----------------|-----2---1-------|-----------------|-----------------|
D|-----------------|-------------4---|-3---------------|-----------------|
A|-----------------|-----------------|-----------------|-----------------|
E|-----------------|-----------------|-----------------|-----------------|
 |
e|-----------------|-----------------|-----------------|-----------------|
B|-----------------|-----------------|-----------------|-----------------|
G|-------------2---|-1---------------|-1---------------|-----------------|
D|-----------------|-----4---2---0---|-----------------|-----------------|
A|-0---------------|-----------------|-4-----------0---|-----------------|
E|-----------------|-----------------|-----------------|-4---------------|


61 |   |   |   |     |   |   |   |     |   |   |   |     |   |   |   |
e|-----------------|-----------------|-----------------|-----------------|
B|-2---------2-0---|-----------------|---------------2-|-3---2---0-------|
G|---------------2-|-1-----------1---|-----------2-0---|-------------2---|
D|-----------------|-----------------|-4---------------|-----------------|
A|-----------------|-----------------|-----------------|-----------------|
E|-----------------|-----------------|-----------------|-----------------|
 |
e|-----------------|-----------------|-----------------|-----------------|
B|-----------------|-----------------|-----------------|-----------0-2-3-|
G|-----------------|-----------------|-----------------|-----------------|
D|-----------------|-----------------|-0---------------|---------2=======|
A|-0-----------2---|-4-------4-------|-------------4---|-2---0-----------|
E|-----------------|-----------------|-----------------|-----------------|


65 |   |   |   |     |   |   |   |     |   |   |   |     |   |   |   |
e|-----------------|-----------------|-----------------|-----------------|
B|-----------------|---------0-------|-----------------|-----------------|
G|-1-----1-2---1---|-----1-2-----2---|-1---2-------1---|-2---------------|
D|---2-4-----------|-4-4-------------|---2-------------|-----------------|
A|-----------------|-----------------|-----------------|---------0-------|
E|-----------------|-----------------|-----------------|-----------------|
 |
e|-0---------------|-----------------|-0---------------|-------------0---|
B|-----3---2---0-2-|-3---2---0-0-2-3-|-----3-2-0---0---|-2---------------|
G|-----------2-----|-----------------|-----------2-----|-2===============|
D|-----------------|-----------------|---------2---2---|-----------------|
A|-----------------|-----------------|-----------------|-----------------|
E|-----------------|-----------------|-----------------|-----------------|
                                           3 2 1

69 |   |   |   |     |   |   |   |     |   |   |   |     |   |   |   |
e|-----------------|---------0-------|-----------------|-----------------|
B|---------0-------|---------------3-|-2-------3-----2-|-0---------------|
G|---------------2-|-1---------------|-----2-----------|-------2-1-------|
D|-----4-----------|-----2-----------|-----------------|-------------2---|
A|-----------------|-----------------|-----------------|-----------------|
E|-----------------|-----------------|-----------------|-----------------|
 |
e|-5=======--------|-7-----5-4---0---|-5-----4-2-----0-|---------0-------|
B|-------------7---|-----------------|-----------------|-3---0---------3-|
G|-----------------|-----------------|-----------------|-----------------|
D|-----------------|-----------------|-----------------|-----------------|
A|-----------------|-----------------|-----------------|-----------------|
E|-----------------|-----------------|-----------------|-----------------|


73 |   |   |   |     |   |   |   |     |   |   |   |     |   |   |   |
e|-----------------|-----------------|-----------------|-----------------|
B|-----------------|-----------------|-----------------|-----------------|
G|-2---------------|-----------------|-----------------|-----------------|
D|---------4-------|-6-------7=======|=========6-------|-----------------|
A|---------5-------|-7===============|-7===============|-------------2---|
E|-----------------|-----------------|-----------------|-----------------|
 |
e|-----------------|-----------------|-----------------|-----------------|
B|-2-------3=======|=========2-------|-0===========----|-----------------|
G|-----2-----------|-----------------|-----------------|-2-----1---------|
D|-----------------|-----------------|-2-----------2---|---------4-------|
A|-----------------|-----------------|-----------------|-----------------|
E|-----------------|-----------------|---------0-------|-----------------|


77 |   |   |   |     |   |   |   |     |   |   |   |     |   |   |   |
e|-----------------|-----------------|-----------------|-----------------|
B|-----------------|-----------------|-0---------------|-----------------|
G|-----------------|-2===============|-----------------|-----------------|
D|-2-----0---------|-0---------------|---------2-------|-2-------2-------|
A|---------4---0---|-------------4---|-2-------0-------|---------0-------|
E|-----------------|-----------------|-----------------|-4---------------|
 |
 |                                             CII.......................
e|---------0-------|-2-----------0---|-2---4---5-------|---------5=======|
B|-----0---------2-|-3---------------|-3=======2-------|---------2-------|
G|-----------------|-----------------|-----------------|-4-------2-------|
D|-----------------|-----------------|-----------------|-2---------------|
A|-----------------|-----------------|-----------------|-----------------|
E|-----------------|-----------------|-----------------|-----------------|


81 |   |   |   |     |   |   |   |     |   |   |   |     |   |   |   |
e|-----------------|-----------------|-----------------|-----------------|
B|-----------------|-----------------|-----------------|-----------------|
G|-----------------|---------2=======|=====------------|-----------------|
D|-2---------------|-2-------0=======|=====--0-----4===|=====2-4-2---0---|
A|-----------------|-0---------------|-----4---4---2---|-0=======--------|
E|-0---------------|-----------------|-----------------|-----------------|
 |
 |                   CII...................
e|=========4-------|-5-------2=======|=====0-2-0-------|-----------------|
B|-0===============|-2-------3=======|=====--------3---|-2===========0---|
G|-----------------|-2---------------|-----------------|-2=======--------|
D|-2===============|-----------------|-----------------|-----------------|
A|-----------------|-----------------|-----------------|-----------------|
E|-----------------|-----------------|-----------------|-----------------|


85 |   |   |   |
e|----------------||
B|----------------||
G|----------------||
D|-2--------------||
A|-0--------------||
E|----------------||
 |
e|----------------||
B|-2--------------||
G|-2--------------||
D|----------------||
A|----------------||
E|----------------||


Notes

left hand fingering above and below tab
1  - index
2  - middle
3  - ring
4  - little

===    note held
p      pull-off
h      hammer-on
cII    partial barre on 2nd fret
CII    full barre on 2nd fret



comments
We did not receive enough feedback on this tab! Please rate:
1 2 3 4 5
I want to post or [tab]
guest
You may want to rate the tab now too:
select rating
Please do not post tabs as comments. Select "correction" instead!