Oops, an error
Loading. Please wait.

Addicted Bass Tab

ver3
ver3

Whole song

More versions @911Tabs.com
1,865 views 1 this week
no commentswrite comment
1 2 3 4 5
poor
x 1
Autoscroll
+/-
esc
set tempo
stop
Contributor
Difficulty
novice
WARNING: You are trying to view
                                    content from Ultimate-Guitar.com
                                    in an unauthorized application,
                                    which is prohibited.

                                    Please use an official Ultimate
                                    Guitar Tabs application for iPhone,
                                    iPad or Android to access legitimate
                                    chords, guitar, bass, and drum tabs
                                    from Ultimate-Guitar.com database.

                                    Type "ultimate guitar tabs" in Apple
                                    App Store's or Android Market's
                                    search to find the application.
----------------------------------------------------------------------------
			     ADDICTED (BASS) – SIMPLE PLAN
----------------------------------------------------------------------------

Tabbed By : joekuhl
e-mail: joekuhl79@yahoo.com

I haven’t seen an ‘Addicted’ bass tab more right than this…enjoy. 

Tuning: Tune all to Eb

Intro - guitar

G|-------------------------------------------------------------------------|
D|-------------------------------------------------------------------------|
A|555-555-555-5------------------------------------------------------------|
E|------------------02-3333-20-555-555-------------------------------------|

G|-------------------------------------------------------------------------|
D|-------------------------------------------------------------------------|
A|555-555-555-5------------------------------------------------------------|
E|------------------02-3333-20-555-555-------------------------------------|

   I heard you’re doing okay…
G|-------------------------------------------------------------------------|
D|-------------------------------------------------------------------------|
A|555-555-555-555-555-555-555-555------------------------------------------|
E|--------------------------------333-333-333-333-333-333-333-333----------|

G|-------------------------------------------------------------------------|
D|-------------------------------------------------------------------------|
A|555-555-555-555-555-555-222-444------------------------------------------|
E|--------------------------------333-333-333-333-333-333-333-332----------|

   I tried to make you…
G|-------------------------------------------------------------------------|
D|-------------------------------------------------------------------------|
A|-------------------------------------------------------------------------|
E|-0-0-000-2-2-222-333-333-5-----------------------------------------------|

I’m tryin – to forget…
G|------------------------------------------------------------------------|
D|-----------------------------2------------------------------------------|
A|555-555-555-5--------------0—024----------------------------------------|
E|------------------02-3--2-----------------------------------------------|

But I want it…
G|------------------------------------------------------------------------|
D|-----------------------------2------------------------------------------|
A|555-555-555-5--------------0—0------------------------------------------|
E|------------------02-3--2-----------32----------------------------------|

Now It’s over…            H  H
G|-------------------------02-02—20---------------------------------------|
D|--------------------------------------4---------------------------------|
A|----------------2-2-0---------------------------------------------------|
E|-0-0-2-2-3-3------------------------------------------------------------|

..and I never…
G|------------------------------------------------------------------------|
D|------------------------------------------------------------------------|
A|----------------2-2-0-0-000-0-------------------------------------------|
E|-0-0-2-2-3-3------------------------------------------------------------|

Heartbreaker………………heartbreaker
G|-------------------------------------------------------------------------|
D|-------------------------------------------------------------------------|
A|-------------------------------------------------------------------------|
E|--3----------------------------------5-----------------------------------|


G|-------------------------------------------------------------------------|
D|-------------------------------------------------------------------------|
A|555-555-555-5------------------------------------------------------------|
E|------------------02-3333-20-555-555-------------------------------------|

Heartbreaker…
G|-------------------------------------------------------------------------|
D|-------------------------------------------------------------------------|
A|555-555-555-5------------------------------------------------------------|
E|------------------02-3333-20-555-555-------------------------------------|

   Since the day I met you…
G|-------------------------------------------------------------------------|
D|-------------------------------------------------------------------------|
A|555-555-555-555-555-555-555-555------------------------------------------|
E|--------------------------------333-333-333-333-333-333-333-333----------|

G|-------------------------------------------------------------------------|
D|-------------------------------------------------------------------------|
A|555-555-555-555-555-555-222-444------------------------------------------|
E|--------------------------------333-333-333-333-333-333-333-332----------|

   I tried to make you…
G|------------------------------------------------------------------------|
D|------------------------------------------------------------------------|
A|------------------------------------------------------------------------|
E|-0-0-000-2-2-222-3-3-333-5-5-532----------------------------------------|

Just to keep you…
G|------------------------------------------------------------------------|
D|------------------------------------------------------------------------|
A|------------------------------------------------------------------------|
E|-0-0-000-333-333-555-555-5----------------------------------------------|


I’m tryin – to forget…
G|------------------------------------------------------------------------|
D|-----------------------------2------------------------------------------|
A|555-555-555-5--------------0—024----------------------------------------|
E|------------------02-3--2-----------------------------------------------|

But I want it…
G|------------------------------------------------------------------------|
D|-----------------------------2------------------------------------------|
A|555-555-555-5--------------0—0------------------------------------------|
E|------------------02-3--2-----------32----------------------------------|

Now It’s over…            H  H
G|-------------------------02-02—20---------------------------------------|
D|--------------------------------------4---------------------------------|
A|----------------2-2-0---------------------------------------------------|
E|-0-0-2-2-3-3------------------------------------------------------------|

..and I never…      H                              Heartbreaker!
G|-------------------02-222-222-222-222-0---------------------------------|
D|------------------------------------------------------------------------|
A|------------------------------------------------------------------------|
E|-0-0-2-2-3-3------------------------------------------------------------|

Heartbreaker………………heartbreaker
How long will I be waiting…

   I don’t know why I’m still waiting….         I can’t make you -
G|-------------------------------------------------------------------------|
D|-------------------------------------------------------------------------|
A|----------------------------------555-555-------777-777-999-999----------|
E|-333-333-222-222-000-000-------------------------------------------------|


  - mine…       GUITAR SOLO
G|-------------------------------------------------------------------------|
D|-------------------------------------------------------------------------|
A|-101010-101010-101010-101010-121212-121212-121212-121212-----------------|
E|-------------------------------------------------------------------------|

G|-------------------------------------------------------------------------|
D|-999-999-999-999-111111-111111-111111------------------------------------|
A|-------------------------------------------------------------------------|
E|-------------------------------------------------------------------------|

G|-------------------------------------------------------------------------|
D|----------------------------------------911------------------------------|
A|-777-777-999-999-101010-101010-121212-12---------------------------------|
E|-------------------------------------------------------------------------|

I’m tryin – to forget…
G|------------------------------------------------------------------------|
D|-----------------------------2------------------------------------------|
A|555-555-555-5--------------0—024----------------------------------------|
E|------------------02-3--2-----------------------------------------------|

But I want it…
G|-------------------------------------------------------------------------|
D|-----------------------------2-------------------------------------------|
A|555-555-555-5--------------0—024-----------------------------------------|
E|------------------02-3--2------------------------------------------------|

I’m tryin – to forget…
G|-------------------------------------------------------------------------|
D|-----------------------------2-------------------------------------------|
A|555-555-555-5--------------0—024-----------------------------------------|
E|------------------02-3--2------------------------------------------------|

But I want it…
G|-------------------------------------------------------------------------|
D|-----------------------------2-------------------------------------------|
A|555-555-555-5--------------0—0-------------------------------------------|
E|------------------02-3--2-----------32-----------------------------------|

Now It’s over…            H  H
G|-------------------------02-02—20------------------------------------|
D|--------------------------------------4------------------------------|
A|----------------2-2-0------------------------------------------------|
E|-0-0-2-2-3-3---------------------------------------------------------|

..and I never…                                     Heartbreaker
G|-------------------------------------------------------------------------|
D|-------------------------------------------------------------------------|
A|----------------2-2-000-000-000-000--------------------------------------|
E|-0-0-2-2-3-3-----------------------------------------------3---\1/555----|

  Heartbreaker   (I’m addicted to you)
G|-------------------------------------------------------------------------|
D|-------------------------------------------------------------------------|
A|555-555-555-5----------------------24------------------------------------|
E|------------------02-3333-20-555-5---------------------------------------|

  Heartbreaker   (I’m addicted to you)
G|-------------------------------------------------------------------------|
D|-------------------------------------------------------------------------|
A|555-555-555-5----------------------24------------------------------------|
E|------------------02-3333-20-555-5---------------------------------------|

  Heartbreaker   (I’m addicted to you)
G|-----------------------------------------------------------------------|
D|------------------24-5555-45-777-757-----------------------------------|
A|555-555-555-5----------------------------------------------------------|
E|-----------------------------------------------------------------------|

  Heartbreaker   (I’m addicted to you)       Heartbreaker!
G|-------------------------------------------------------------------------|
D|-------------------------------------------------------------------------|
A|555-555-555-5------------------------------5-----------------------------|
E|------------------02-3333-20-555-555-------------------------------------|


| /  slide up
| \  slide down
| h  hammer-on
| p  pull-off
| ~  vibrato
| +  harmonic
| x  Mute note
===============================================================================


comments
We did not receive enough feedback on this tab! Please rate:
1 2 3 4 5
I want to post or [tab]
guest
You may want to rate the tab now too:
select rating
Please do not post tabs as comments. Select "correction" instead!