Oops, an error
Loading. Please wait.

Cant Keep My Hands Off You Tab

ver2
ver2

Whole song

More versions @911Tabs.com
8,861 views 27 this week
2 commentsread comments
1 2 3 4 5
accurate
x 4
Autoscroll
+/-
esc
set tempo
stop
Contributor
Difficulty
intermediate
WARNING: You are trying to view
                                    content from Ultimate-Guitar.com
                                    in an unauthorized application,
                                    which is prohibited.

                                    Please use an official Ultimate
                                    Guitar Tabs application for iPhone,
                                    iPad or Android to access legitimate
                                    chords, guitar, bass, and drum tabs
                                    from Ultimate-Guitar.com database.

                                    Type "ultimate guitar tabs" in Apple
                                    App Store's or Android Market's
                                    search to find the application.
-------------------------------------------
 Can't Keep My Hands Off You ~ Simple Plan
-------------------------------------------
Album: Get Your Heart On!   (2011)

Tabbed By: Russcool
(I know, pretty lame name)

Tuning: Standard

Tempo: About 115

Key: D

Timing: 4/4



INTRO   

   Guitar 1
E |----------------------------|----------------------------|
B |----------------------------|----------------------------|
G |--7-----7--7--2-----2--2----|--4-----4--4--2-----2--2----|   x2
D |--x-----x--x--x-----x--x----|--x-----x--x--x-----x--x----|
A |--5-----5--5--0-----0--0----|--2-----2--2--0-----0--0----|
E |----------------------------|----------------------------|

   Guitar 2
E |----------------------------|----------------------------|
B |----------------------------|----------------------------|
G |----------------------------|----------------------------|   x2
D |--7-----7--7----------------|----------------------------|
A |--5-----5--5--7-----7--7----|--9-----9--9--7-----7--7----|
E |--------------5-----5--5----|--7-----7--7--5-----5--5----|

Let's go!

Guitar 1
----------------------------|----------------------------|
----------------------------|----------------------------|
--7-----7--11-9-------------|--7-----7--11-9-----7-------|
--x-----x--x--x-------------|--x-----x--x--x-----x-------|
--5-----5--9--7-------------|--5-----5--9--7-----5-------|
----------------------------|----------------------------|

----------------------------|----------------------------|
----------------------------|----------------------------|
--7-----7--11-9-------------|--7-----7--11-9-----7s------|
--x-----x--x--x-------------|--x-----x--x--x-----xs------|
--5-----5--9--7-------------|--5-----5--9--7-----5s------|
----------------------------|----------------------------|

Guitar 2
----------------------------|----------------------------|
----------------------------|----------------------------|
----------------------------|----------------------------|
--7--7--7--7----------------|----------------------------|
--5--5--5--5--7--7--7--7----|--9--9--9--9--5--5--5--5----|
--------------5--5--5--5----|--7--7--7--7--3--3--3--3----|

----------------------------|----------------------------|
----------------------------|----------------------------|
----------------------------|----------------------------|
--7--7--7--7----------------|----------------------------|
--5--5--5--5--7--7--7--7----|--9--9--9--9--5--5--5s------|
--------------5--5--5--5----|--7--7--7--7--3--3--5s------|


VERSE

Guitar 1
----------------------------------------------------|
----------------------------------------------------|
--7s----------------------------------x--x--x--x----|
--xs----------------------------------x--x--x--x----|
--5s----------------------------------x--x--x--x----|
----------------------------------------------------|

Guitar 2
----------------------------------------------------|
----------------------------------------------------|
--7s----------------------------------x--x--x--x----|
--7s----------------------------------x--x--x--x----|
--5s----------------------------------x--x--x--x----|
----------------------------------------------------|

Guitar 1
----------------------------|----------------------------|
----------------------------|----------------------------|
--7-----7--7--2-----2--2----|--4-----4--4--2-----2--2----|   
--x-----x--x--x-----x--x----|--x-----x--x--x-----x--x----|
--5-----5--5--0-----0--0----|--2-----2--2--0-----0--0----|
----------------------------|----------------------------|

Guitar 2
----------------------------|----------------------------|
----------------------------|----------------------------|
----------------------------|----------------------------|   
--7-----7--7----------------|----------------------------|
--5-----5--5--7-----7--7----|--9-----9--9--7-----7--7----|
--------------5-----5--5----|--7-----7--7--5-----5--5----|

Guitar 1
----------------------------------------------------|
----------------------------------------------------|
--7s----------------------------------x--x--x--x----|
--xs----------------------------------x--x--x--x----|
--5s----------------------------------x--x--x--x----|
----------------------------------------------------|

Guitar 2
----------------------------------------------------|
----------------------------------------------------|
--7s----------------------------------x--x--x--x----|
--7s----------------------------------x--x--x--x----|
--5s----------------------------------x--x--x--x----|
----------------------------------------------------|

Guitar 1
----------------------------|----------------------------|
----------------------------|----------------------------|
--7-----7--7--2-----2--2----|--4-----4--4--2-----2--2----|   
--x-----x--x--x-----x--x----|--x-----x--x--x-----x--x----|
--5-----5--5--0-----0--0----|--2-----2--2--0-----0--0----|
----------------------------|----------------------------|

Guitar 2
----------------------------|----------------------------|
----------------------------|----------------------------|
----------------------------|----------------------------|   
--7-----7--7----------------|----------------------------|
--5-----5--5--7-----7--7----|--9-----9--9--7-----7--7----|
--------------5-----5--5----|--7-----7--7--5-----5--5----|


PRE-CHORUS

Guitars 1 & 2
----------------------|
----------------------|
---7------------------|
---7---7---9---5------|
---5---7---9---5------|
-------5---7---3------|


CHORUS

Guitar 1   (Let Ring)
|--------------------14------------------------------|
|--15----------------------17-------15---------------|
|-----------14-------------------------------14------|
|----------------------------------------------------|
|----------------------------------------------------|
|----------------------------------------------------|

--------------------14----15-------14---------------|
--15----------------------------------------15------|
-----------14---------------------------------------|
----------------------------------------------------|
----------------------------------------------------|
----------------------------------------------------|

--------------------14------------------------------|
--15----------------------17-------15---------------|
-----------14-------------------------------14------|
----------------------------------------------------|
----------------------------------------------------|
----------------------------------------------------|

--------------------14----15-------14---------------|
--15----------------------------------------15------|
-----------14---------------------------------------|
----------------------------------------------------|
----------------------------------------------------|
----------------------------------------------------|

--------------------14------------------------------|
--15----------------------17-------15---------------|
-----------14-------------------------------14------|
----------------------------------------------------|
----------------------------------------------------|
----------------------------------------------------|

--------------------14----15-------14---------------|
--15----------------------------------------15------|
-----------14---------------------------------------|
----------------------------------------------------|
----------------------------------------------------|
----------------------------------------------------|

--------------------14------------------------------|
--15----------------------17-------15---------------|
-----------14-------------------------------14------|
----------------------------------------------------|
----------------------------------------------------|
----------------------------------------------------|

--14----------------------14------------------------|
-----------17-------15-------------17-------15------|
----------------------------------------------------|
----------------------------------------------------|
----------------------------------------------------|
----------------------------------------------------|

--------------------14------------------------------|
--15----------------------17s-----------------------|
-----------14---------------------------------------|
----------------------------------------------------|
----------------------------------------------------|
----------------------------------------------------|

Guitar 2
|----------------------------|
|----------------------------|
|--7--7--7--7----------------|
|--7--7--7--7--7--7--7--7----|
|--5--5--5--5--7--7--7--7----|
|--------------5--5--5--5----|

----------------------------|----------------------------|
----------------------------|----------------------------|
----------------------------|--7--7--7--7----------------|
--9--9--9--9--5--5--5--5----|--7--7--7--7--7--7--7--7----|
--9--9--9--9--5--5--5--5----|--5--5--5--5--7--7--7--7----|
--7--7--7--7--3--3--3--3----|--------------5--5--5--5----|

----------------------------|----------------------------|
----------------------------|----------------------------|
----------------------------|--7--7--7--7----------------|
--5--5--5--5--5--5--5--5----|--7--7--7--7--7--7--7--7----|
--5--5--5--5--5--5--5--5----|--5--5--5--5--7--7--7--7----|
--3--3--3--3--3--3--3--3----|--------------5--5--5--5----|

----------------------------|----------------------------|
----------------------------|----------------------------|
----------------------------|----------------------------|
--9--9--9--9--5--5--5--5----|--5--5--5--5--7--7--7--7----|
--9--9--9--9--5--5--5--5----|--5--5--5--5--7--7--7--7----|
--7--7--7--7--3--3--3--3----|--3--3--3--3--5--5--5--5----|

----------------------------|----------------------------|
----------------------------|----------------------------|
----------------------------|----------------------------|
--9--9--9--9--7--7--7--7----|--5--5--5--5--7s------------|
--9--9--9--9--7--7--7--7----|--5--5--5--5--7s------------|
--7--7--7--7--5--5--5--5----|--3--3--3--3--5s------------|


INTERLUDE
Guitar 1
----------------------------|----------------------------|
----------------------------|----------------------------|
--7-----7--11-9-------------|--7-----7--11-9-----7-------|
--x-----x--x--x-------------|--x-----x--x--x-----x-------|
--5-----5--9--7-------------|--5-----5--9--7-----5-------|
----------------------------|----------------------------|

----------------------------|----------------------------|
----------------------------|----------------------------|
--7-----7--11-9-------------|--7-----7--11-9-----7s------|
--x-----x--x--x-------------|--x-----x--x--x-----xs------|
--5-----5--9--7-------------|--5-----5--9--7-----5s------|
----------------------------|----------------------------|

Guitar 2
----------------------------|----------------------------|
----------------------------|----------------------------|
----------------------------|----------------------------|
--7--7--7--7----------------|----------------------------|
--5--5--5--5--7--7--7--7----|--9--9--9--9--5--5--5--5----|
--------------5--5--5--5----|--7--7--7--7--3--3--3--3----|

----------------------------|----------------------------|
----------------------------|----------------------------|
----------------------------|----------------------------|
--7--7--7--7----------------|----------------------------|
--5--5--5--5--7--7--7--7----|--9--9--9--9--5--5--5s------|
--------------5--5--5--5----|--7--7--7--7--3--3--5s------|


VERSE

PRE-CHORUS

CHORUS

INTERLUDE


BRIDGE

Guitars 1 & 2

|-------|-------|
|-------|-------|
|--7L---|--7----|
|--xL---|--x----|
|--5L---|--5----|
|-------|-------|

-------|-------|-------|-------|-------|-------|-------|-------|-------|-------|
-------|-------|-------|-------|-------|-------|-------|-------|-------|-------|
--7----|--6----|-------|-------|--7----|--6----|-------|-------|--7----|--6----|
--7----|--7----|--5----|--7----|--7----|--7----|--5----|--7----|--7----|--7----|
--5----|--4----|--5----|--7----|--5----|--4----|--5----|--7----|--5----|--4----|
-------|-------|--3----|--5----|-------|-------|--3----|--5----|-------|-------|

-------|-------|-------|-------|-------|----------------|
-------|-------|-------|-------|-------|----------------|
-------|-------|--7----|--6----|-------|----------------|
--5----|--7----|--7----|--7----|--5----|--7s------------|
--5----|--7----|--5----|--4----|--5----|--7s------------|
--3----|--5----|-------|-------|--3----|--5s------------|


CHORUS


OUTRO

(Play Interlude Twice)

End On:

--------------|
--------------|
---7s---------|
---7s---------|
---5s---------|
--------------|





Key:

s     Slide

x     Dead Note

L     Tied Note
comments
print report bad tab
2 comments total.
0 reply
bRIGHTY273 wrote on October 20 2011, 08:36 am

weres the interlude

0 reply
bRIGHTY273 wrote on October 20 2011, 08:37 am

never mind didnt see it nice work

I want to post or [tab]
guest
You may want to rate the tab now too:
select rating
Please do not post tabs as comments. Select "correction" instead!