Oops, an error
Loading. Please wait.

Jet Lag Tab

ver3
ver3
More versions @911Tabs.com
3,257 views 3 this week
no commentswrite comment
1 2 3 4 5
please rate
Autoscroll
+/-
esc
set tempo
stop
Contributor
Difficulty
novice
NEW! There's an official Ultimate Guitar app which is ideal
for learning songs when you're away from computer. Get the app
WARNING: You are trying to view
                                    content from Ultimate-Guitar.com
                                    in an unauthorized application,
                                    which is prohibited.

                                    Please use an official Ultimate
                                    Guitar Tabs application for iPhone,
                                    iPad or Android to access legitimate
                                    chords, guitar, bass, and drum tabs
                                    from Ultimate-Guitar.com database.

                                    Type "ultimate guitar tabs" in Apple
                                    App Store's or Android Market's
                                    search to find the application.
JET LAG by Simple Plan

Legend:
* :Palm Mute

Lead guitar
Intro :
e|-------------------------------------------11-----------|
B|--12----12-11----11-12-----12--14------14--------14-----| 
G|-----11-------11--------11----------11--------11----11--|
D|--------------------------------------------------------|   
A|--------------------------------------------------------|
E|--------------------------------------------------------| X4

Verse :
e|-------------------------------------|
B|-------------------------------------|
G|--4-4-4-4-4-4-4-4--------------------|
D|--4-4-4-4-4-4-4-4-2-2-2-2-2-2-2-2-2--| 
A|--2-2-2-2-2-2-2-2-2-2-2-2-2-2-2-2-2--|
E|------------------0-0-0-0-0-0-0-0-0--| X2
    * * * * * * * * * * * * * * * * *    
e|-----------------------------------------------------------------------|
B|-----------------------------------------------------------------------|
G|-----------------------------------------------------------------------|
D|--6-6-6-6-6-6-6-6-6-6-2-2-2-2-2-2-2-2-2-6-6-6-6-6-6-6-6-4-4-4-4-4-4-4--|
A|--6-6-6-6-6-6-6-6-6-6-2-2-2-2-2-2-2-2-2-6-6-6-6-6-6-6-6-4-4-4-4-4-4-4--|
E|--4-4-4-4-4-4-4-4-4-4-0-0-0-0-0-0-0-0-0-4-4-4-4-4-4-4-4-2-2-2-2-2-2-2--|
    * * * * * * * * * * * * * * * * * * * * * * * * * * * * * * * * * *

Chorus :
e|-------------------------------------------------------------------|
B|-------------------------------------------------------------------|
G|--4-4-4-4-4-4-4-4--------------------------------------------------|
D|--4-4-4-4-4-4-4-4-2-2-2-2-2-2-2-2-6-6-6-6-6-6-6-6-4-4-4-4-4-4-4-4--|  
A|--2-2-2-2-2-2-2-2-2-2-2-2-2-2-2-2-6-6-6-6-6-6-6-6-4-4-4-4-4-4-4-4--|
E|------------------0-0-0-0-0-0-0-0-4-4-4-4-4-4-4-4-2-2-2-2-2-2-2-2--| X2

e|-------------------------------------------11-----------|
B|--12----12-11----11-12-----12--14------14--------14-----| 
G|-----11-------11--------11----------11--------11----11--|
D|--------------------------------------------------------|   
A|--------------------------------------------------------|
E|--------------------------------------------------------| X2

e|-------------------------------------------11-----------|   
B|--12----12-11----11-12-----12--14------14--------14-----|    
G|-----11-------11--------11----------11--------11----11--|   
D|--------------------------------------------------------|   
A|--------------------------------------------------------|   
E|--------------------------------------------------------| X1

Verse :
e|-------------------------------------|
B|-------------------------------------|
G|--4-4-4-4-4-4-4-4--------------------|
D|--4-4-4-4-4-4-4-4-2-2-2-2-2-2-2-2-2--| 
A|--2-2-2-2-2-2-2-2-2-2-2-2-2-2-2-2-2--|
E|------------------0-0-0-0-0-0-0-0-0--| X2
    * * * * * * * * * * * * * * * * *    
e|-----------------------------------------------------------------------|
B|-----------------------------------------------------------------------|
G|-----------------------------------------------------------------------|
D|--6-6-6-6-6-6-6-6-6-6-2-2-2-2-2-2-2-2-2-6-6-6-6-6-6-6-6-4-4-4-4-4-4-4--|
A|--6-6-6-6-6-6-6-6-6-6-2-2-2-2-2-2-2-2-2-6-6-6-6-6-6-6-6-4-4-4-4-4-4-4--|
E|--4-4-4-4-4-4-4-4-4-4-0-0-0-0-0-0-0-0-0-4-4-4-4-4-4-4-4-2-2-2-2-2-2-2--|
    * * * * * * * * * * * * * * * * * * * * * * * * * * * * * * * * * *

Chorus :
e|-------------------------------------------------------------------|
B|-------------------------------------------------------------------|
G|--4-4-4-4-4-4-4-4--------------------------------------------------|
D|--4-4-4-4-4-4-4-4-2-2-2-2-2-2-2-2-6-6-6-6-6-6-6-6-4-4-4-4-4-4-4-4--|  
A|--2-2-2-2-2-2-2-2-2-2-2-2-2-2-2-2-6-6-6-6-6-6-6-6-4-4-4-4-4-4-4-4--|
E|------------------0-0-0-0-0-0-0-0-4-4-4-4-4-4-4-4-2-2-2-2-2-2-2-2--| X2

e|-------------------------------------------11-----------|
B|--12----12-11----11-12-----12--14------14--------14-----| 
G|-----11-------11--------11----------11--------11----11--|
D|--------------------------------------------------------|   
A|--------------------------------------------------------|
E|--------------------------------------------------------| X2

Bridge : (Low volume, clean)
e|-------------------------------------------11-----------|
B|--12----12-11----11-12-----12--14------14--------14-----| 
G|-----11-------11--------11----------11--------11----11--|
D|--------------------------------------------------------|   
A|--------------------------------------------------------|
E|--------------------------------------------------------| 

Chorus :
e|-----------------------------------|
B|-----------------------------------|
G|-----------------------------------|
D|--6-6-6-6-6-6-6-6-4-4-4-4-4-4-4-4--|  
A|--6-6-6-6-6-6-6-6-4-4-4-4-4-4-4-4--|
E|--4-4-4-4-4-4-4-4-2-2-2-2-2-2-2-2--| X1

e|-------------------------------------------------------------------|
B|-------------------------------------------------------------------|
G|--4-4-4-4-4-4-4-4--------------------------------------------------|
D|--4-4-4-4-4-4-4-4-2-2-2-2-2-2-2-2-6-6-6-6-6-6-6-6-4-4-4-4-4-4-4-4--|  
A|--2-2-2-2-2-2-2-2-2-2-2-2-2-2-2-2-6-6-6-6-6-6-6-6-4-4-4-4-4-4-4-4--|
E|------------------0-0-0-0-0-0-0-0-4-4-4-4-4-4-4-4-2-2-2-2-2-2-2-2--| X3

e|-------------------------------------------11-----------|
B|--12----12-11----11-12-----12--14------14--------14-----| 
G|-----11-------11--------11----------11--------11----11--|
D|--------------------------------------------------------|   
A|--------------------------------------------------------|
E|--------------------------------------------------------| X2

Outro :
e|---------------------|
B|---------------------|
G|--4-~----------------|
D|--4-~----4-~----2-~--|
A|--2-~----4-~----2-~--|
E|---------2-~----0-~--|

Rythm Guitar
Intro :
e|---------------------|
B|---------------------|
G|--4-~----------------|
D|--4-~----4-~----2-~--|
A|--2-~----4-~----2-~--|
E|---------2-~----0-~--|

Verse :
e|-------------------------------------|
B|-------------------------------------|
G|--4-4-4-4-4-4-4-4--------------------|
D|--4-4-4-4-4-4-4-4-2-2-2-2-2-2-2-2-2--| 
A|--2-2-2-2-2-2-2-2-2-2-2-2-2-2-2-2-2--|
E|------------------0-0-0-0-0-0-0-0-0--| X2
    * * * * * * * * * * * * * * * * *    
e|-----------------------------------------------------------------------|
B|-----------------------------------------------------------------------|
G|-----------------------------------------------------------------------|
D|--6-6-6-6-6-6-6-6-6-6-2-2-2-2-2-2-2-2-2-6-6-6-6-6-6-6-6-4-4-4-4-4-4-4--|
A|--6-6-6-6-6-6-6-6-6-6-2-2-2-2-2-2-2-2-2-6-6-6-6-6-6-6-6-4-4-4-4-4-4-4--|
E|--4-4-4-4-4-4-4-4-4-4-0-0-0-0-0-0-0-0-0-4-4-4-4-4-4-4-4-2-2-2-2-2-2-2--|
    * * * * * * * * * * * * * * * * * * * * * * * * * * * * * * * * * *

Chorus :
e|-------------------------------------------------------------------|
B|-------------------------------------------------------------------|
G|--4-4-4-4-4-4-4-4--------------------------------------------------|
D|--4-4-4-4-4-4-4-4-2-2-2-2-2-2-2-2-6-6-6-6-6-6-6-6-4-4-4-4-4-4-4-4--|  
A|--2-2-2-2-2-2-2-2-2-2-2-2-2-2-2-2-6-6-6-6-6-6-6-6-4-4-4-4-4-4-4-4--|
E|------------------0-0-0-0-0-0-0-0-4-4-4-4-4-4-4-4-2-2-2-2-2-2-2-2--| X2

e|------------------------------------------|
B|------------------------------------------|
G|----4--4--4-------------------------------|
D|----4--4--4--2-2--2-2---6-6-6---4-4--4-4--|     
A|----2--2--2--2-2--2-2---6-6-6---4-4--4-4--|
E|-------------0-0--0-0---4-4-4---2-2--2-2--| X2

e|---------------------|
B|---------------------|
G|--4-~----------------|
D|--4-~----4-~----2-~--|
A|--2-~----4-~----2-~--|
E|---------2-~----0-~--|

Verse :
e|-------------------------------------|
B|-------------------------------------|
G|--4-4-4-4-4-4-4-4--------------------|
D|--4-4-4-4-4-4-4-4-2-2-2-2-2-2-2-2-2--| 
A|--2-2-2-2-2-2-2-2-2-2-2-2-2-2-2-2-2--|
E|------------------0-0-0-0-0-0-0-0-0--| X2
    * * * * * * * * * * * * * * * * *    
e|-----------------------------------------------------------------------|
B|-----------------------------------------------------------------------|
G|-----------------------------------------------------------------------|
D|--6-6-6-6-6-6-6-6-6-6-2-2-2-2-2-2-2-2-2-6-6-6-6-6-6-6-6-4-4-4-4-4-4-4--|
A|--6-6-6-6-6-6-6-6-6-6-2-2-2-2-2-2-2-2-2-6-6-6-6-6-6-6-6-4-4-4-4-4-4-4--|
E|--4-4-4-4-4-4-4-4-4-4-0-0-0-0-0-0-0-0-0-4-4-4-4-4-4-4-4-2-2-2-2-2-2-2--|
    * * * * * * * * * * * * * * * * * * * * * * * * * * * * * * * * * *

Chorus :
e|-------------------------------------------------------------------|
B|-------------------------------------------------------------------|
G|--4-4-4-4-4-4-4-4--------------------------------------------------|
D|--4-4-4-4-4-4-4-4-2-2-2-2-2-2-2-2-6-6-6-6-6-6-6-6-4-4-4-4-4-4-4-4--|  
A|--2-2-2-2-2-2-2-2-2-2-2-2-2-2-2-2-6-6-6-6-6-6-6-6-4-4-4-4-4-4-4-4--|
E|------------------0-0-0-0-0-0-0-0-4-4-4-4-4-4-4-4-2-2-2-2-2-2-2-2--| X2

e|------------------------------------------|
B|------------------------------------------|
G|----4--4--4-------------------------------|
D|----4--4--4--2-2--2-2---6-6-6---4-4--4-4--|     
A|----2--2--2--2-2--2-2---6-6-6---4-4--4-4--|
E|-------------0-0--0-0---4-4-4---2-2--2-2--| X2

e|---------------------|
B|---------------------|
G|--4-~----------------|
D|--4-~----4-~----2-~--|
A|--2-~----4-~----2-~--|
E|---------2-~----0-~--|

Bridge : (Low volume, no distortion)
e|-----------------------------|
B|-----------------------------|
G|-----------------------------|                              
D|-----------------------------|
A|----2-~----------------------|
E|-----------0-~---------------|

Chorus :
e|-----------------------------------|
B|-----------------------------------|
G|-----------------------------------|
D|--6-6-6-6-6-6-6-6-4-4-4-4-4-4-4-4--|  
A|--6-6-6-6-6-6-6-6-4-4-4-4-4-4-4-4--|
E|--4-4-4-4-4-4-4-4-2-2-2-2-2-2-2-2--| X1

e|-------------------------------------------------------------------|
B|-------------------------------------------------------------------|
G|--4-4-4-4-4-4-4-4--------------------------------------------------|
D|--4-4-4-4-4-4-4-4-2-2-2-2-2-2-2-2-6-6-6-6-6-6-6-6-4-4-4-4-4-4-4-4--|  
A|--2-2-2-2-2-2-2-2-2-2-2-2-2-2-2-2-6-6-6-6-6-6-6-6-4-4-4-4-4-4-4-4--|
E|------------------0-0-0-0-0-0-0-0-4-4-4-4-4-4-4-4-2-2-2-2-2-2-2-2--| X3

e|------------------------------------------|
B|------------------------------------------|
G|----4--4--4-------------------------------|
D|----4--4--4--2-2--2-2---6-6-6---4-4--4-4--|     
A|----2--2--2--2-2--2-2---6-6-6---4-4--4-4--|
E|-------------0-0--0-0---4-4-4---2-2--2-2--| X2

Outro :
e|---------------------|
B|---------------------|
G|--4-~----------------|
D|--4-~----4-~----2-~--|
A|--2-~----4-~----2-~--|
E|---------2-~----0-~--|
comments
We did not receive enough feedback on this tab! Please rate:
print report bad tab
1 2 3 4 5
I want to post or [tab]
guest
You may want to rate the tab now too:
select rating
Please do not post tabs as comments. Select "correction" instead!