Oops, an error
Loading. Please wait.

Loser Of The Year Tab

9,762 views 58 this week
no commentswrite comment
1 2 3 4 5
excellent!
x 3
Autoscroll
+/-
esc
set tempo
stop
Contributor
Difficulty
Tuning
novice
D A D G B E
WARNING: You are trying to view
                                    content from Ultimate-Guitar.com
                                    in an unauthorized application,
                                    which is prohibited.

                                    Please use an official Ultimate
                                    Guitar Tabs application for iPhone,
                                    iPad or Android to access legitimate
                                    chords, guitar, bass, and drum tabs
                                    from Ultimate-Guitar.com database.

                                    Type "ultimate guitar tabs" in Apple
                                    App Store's or Android Market's
                                    search to find the application.
-----------------------------------------------------------------------------
                         Simple Plan - Loser Of The Year
-----------------------------------------------------------------------------
Tabbed by: ArnoMusicTv   ( http://www.youtube.com/user/ArnoMusicTv )

Tuning: Drop D  =   D   
                    A
                    D   
                    G
                    B
                    e

\ : Slide



          /!\        If you need help, go watch my video :        /!\
          /!\      http://www.youtube.com/watch?v=XtQG5qc6YwE     /!\   




---[ Intro ]---



Rhythm Guitar                      
                                                   x4          
e|-------------------------------------------------||-----------------|
B|-------------------------------------------------||-----------------|
G|--5--------5--5-----5--------5--5-----5-----5----||--5\-------------| 
D|--5--------5--5-----5--------5--5-----5-----5----||--5\-------------|
A|--3--------3--3-----3--------3--3-----3-----3----||--3\-------------|
D|-------------------------------------------------||-----------------|
    .     .     .     .     .     .     .     .        .


Lead Guitar
                                                            x2   
e|----------------------------------------------------------||
B|----------------------------------------------------------||
G|--9--------9--9-----9--------9--9-----9-----7-------------|| 
D|----------------------------------------------------------||
A|--7--------7--7-----7--------7--7-----7-----5-------------||
D|----------------------------------------------------------||
    .     .     .     .     .     .     .     .        

e|-----------------------------------------------------------|
B|-----------------------------------------------------------|
G|--9--9--9--7--7--7--10--10--10--7--7--7--------------------| 
D|-----------------------------------------10--10--10--10----|
A|-----------------------------------------------------------|
D|-----------------------------------------------------------|


e|-----------------------------------------------------------|
B|-----------------------------------------------------------|
G|--9--9--9--7--7--7--10--10--10--7--7--7--------------------| 
D|-----------------------------------------10\---------------|
A|-----------------------------------------------------------|
D|-----------------------------------------------------------|




---[ Verse ]---



Rhythm Guitar                      
             
e|-----------------------------------------------------------|
B|-----------------------------------------------------------|
G|----------------------------------------5\-----------------| 
D|--3-3-3-3-3-3-3-3----5-5-5-5-5-5-5-5----5\-----------------|
A|--3-3-3-3-3-3-3-3----5-5-5-5-5-5-5-5----3\-----------------|
D|--3-3-3-3-3-3-3-3----5-5-5-5-5-5-5-5-----------------------|

                                          Let ring..........]
e|-----------------------------------------------------------|
B|-----------------------------------------------------------|
G|----------------------------------------5------------------| 
D|--3-3-3-3-3-3-3-3----5-5-5-5-5-5-5-5----5------------------|
A|--3-3-3-3-3-3-3-3----5-5-5-5-5-5-5-5----3------------------|
D|--3-3-3-3-3-3-3-3----5-5-5-5-5-5-5-5-----------------------|


Lead Guitar
                                                               
e|-----------------------------------------------------------|
B|-----------------------------------------------------------|
G|--------------------------------------------5\-------------| 
D|--x\--3-3-3-3-3-3-3-3----5-5-5-5-5-5-5-5----5\-------------|
A|--x\--3-3-3-3-3-3-3-3----5-5-5-5-5-5-5-5----3\-------------|
D|--x\--3-3-3-3-3-3-3-3----5-5-5-5-5-5-5-5-------------------|

                      x5
e|--------------------||------------------------------------------------|
B|--------------------||------------------------------------------------|
G|--5--x-x--5--x-x----||------------------------------------------------| 
D|-----x-x-----x-x----||--x-x-x-x--3-3-3-3-3-3-3-3----5-5-5-5-5-5-5-5---|
A|--3--x-x--3--x-x----||--x-x-x-x--3-3-3-3-3-3-3-3----5-5-5-5-5-5-5-5---|
D|--------------------||--x-x-x-x--3-3-3-3-3-3-3-3----5-5-5-5-5-5-5-5---|

                      x7
e|--------------------||
B|--------------------||
G|--10------10--------||
D|-----10------10-----||
A|--------------------||
D|--------------------||




---[ Chorus ]---



Rhythm Guitar                      
                                                                        x2
e|----------------------------------------------------------------------||
B|----------------------------------------------------------------------||
G|-------------------5-5-5-5-5-5-5-5------------------------------------||
D|--3-3-3-3-3-3-3-3--5-5-5-5-5-5-5-5--7-7-7-7-7-7-7-7--5-5-5-5-5-5-5-5--||
A|--3-3-3-3-3-3-3-3--3-3-3-3-3-3-3-3--7-7-7-7-7-7-7-7--5-5-5-5-5-5-5-5--||
D|--3-3-3-3-3-3-3-3-------------------7-7-7-7-7-7-7-7--5-5-5-5-5-5-5-5--||


e|-----------------------------------------------------------------------|
B|-----------------------------------------------------------------------|
G|------------------ ----------------------------------------------------| 
D|--3-3-3--x-x-3-3---3-3---3---3-----7-7-7-7-7-7-7-7--5-5-5-5-5-5-5-5----|
A|--3-3-3--x-x-3-3---3-3---3---3-----7-7-7-7-7-7-7-7--5-5-5-5-5-5-5-5----|
D|--3-3-3--x-x-3-3---3-3---3---3-----7-7-7-7-7-7-7-7--5-5-5-5-5-5-5-5----|


e|-----------------------------------------------------------------------|
B|-----------------------------------------------------------------------|
G|-----------------------------------------------------------------------| 
D|--0-0-0-0-0-0-0-0--0-0-0-0-0-0-0-0--3-3-3-3-3-3-3-3-3\-----------------|
A|--0-0-0-0-0-0-0-0--0-0-0-0-0-0-0-0--3-3-3-3-3-3-3-3-3\-----------------|
D|--0-0-0-0-0-0-0-0--0-0-0-0-0-0-0-0--3-3-3-3-3-3-3-3-3\-----------------|


Lead Guitar
                                          x2                            x2
e|----------------------------------------||----------------------------||
B|-----13-------13-------13-------15------||--13-13-13-13-13-13-13-13---||
G|--12----12-12----12-14----14-12----12---||--12-12-12-12-12-12-12-12---|| 
D|----------------------------------------||----------------------------||
A|----------------------------------------||----------------------------||
D|----------------------------------------||----------------------------||

                                                               x2
e|--------------------------|----------------------------------||
B|------13----------15------|--15--15--15--15--15--15--15--15--||
G|--14------14--12------12--|--12--12--12--12--12--12--12--12--|| 
D|--------------------------|----------------------------------||
A|--------------------------|----------------------------------||
D|--------------------------|----------------------------------||


e|----------------------------------------|
B|--13--13--13--13--13--13--13--13---12\--|
G|--12--12--12--12--12--12--12--12---12\--| 
D|----------------------------------------|
A|----------------------------------------|
D|----------------------------------------|



---[ Chorus Bridge ]---



Rhythm Guitar                      
                                                   x2          
e|-------------------------------------------------||-----------------|
B|-------------------------------------------------||-----------------|
G|--5--5-----5--5-----5--5-----5--5-----5-----5----||--5\-------------| 
D|--5--5-----5--5-----5--5-----5--5-----5-----5----||--5\-------------|
A|--3--3-----3--3-----3--3-----3--3-----3-----3----||--3\-------------|
D|-------------------------------------------------||-----------------|
    .     .     .     .     .     .     .     .        .


Lead Guitar
                                                               
e|-----------------------------------------------------------|
B|-----------------------------------------------------------|
G|--9--9--9--7--7--7--10--10--10--7--7--7--------------------| 
D|-----------------------------------------10--10--10--10----|
A|-----------------------------------------------------------|
D|-----------------------------------------------------------|


e|-----------------------------------------------------------|
B|-----------------------------------------------------------|
G|--9--9--9--7--7--7--10--10--10--7--7--7--------------------| 
D|-----------------------------------------10\---------------|
A|-----------------------------------------------------------|
D|-----------------------------------------------------------|




---[ Verse 2 ]---



Rhythm Guitar                      
             
e|-----------------------------------------------------------|
B|-----------------------------------------------------------|
G|-----------------------------------------------------------| 
D|--x-x-x-x--3-3-3-3-3-3-3-3----5-5-5-5-5-5-5-5--------------|
A|--x-x-x-x--3-3-3-3-3-3-3-3----5-5-5-5-5-5-5-5--------------|
D|--x-x-x-x--3-3-3-3-3-3-3-3----5-5-5-5-5-5-5-5--------------|

                             x6
e|---------------------------||
B|---------------------------||
G|---------------------------||
D|--5--5--5--5--5--5--5--5---||
A|--3--3--3--3--3--3--3--3---||
D|---------------------------||

                                                   Let ring......]
e|----------------------------------------------------------------|
B|----------------------------------------------------------------|
G|-------------------------------------------------5--------------| 
D|--x-x-x-x--3-3-3-3-3-3-3-3----5-5-5-5-5-5-5-5----5--------------|
A|--x-x-x-x--3-3-3-3-3-3-3-3----5-5-5-5-5-5-5-5----3--------------|
D|--x-x-x-x--3-3-3-3-3-3-3-3----5-5-5-5-5-5-5-5-------------------|


Lead Guitar

                      x5
e|--------------------||---------------------------------------------------|
B|--------------------||---------------------------------------------------|
G|--5--x-x--5--x-x----||-----------------------------------------------5\--| 
D|-----x-x-----x-x----||--x-x-x-x--3-3-3-3-3-3-3-3----5-5-5-5-5-5-5-5--5\--|
A|--3--x-x--3--x-x----||--x-x-x-x--3-3-3-3-3-3-3-3----5-5-5-5-5-5-5-5--3\--|
D|--------------------||--x-x-x-x--3-3-3-3-3-3-3-3----5-5-5-5-5-5-5-5------|

                      x5
e|--------------------||------------------------------------------------|
B|--------------------||------------------------------------------------|
G|--5--x-x--5--x-x----||------------------------------------------------| 
D|-----x-x-----x-x----||--x-x-x-x--3-3-3-3-3-3-3-3----5-5-5-5-5-5-5-5---|
A|--3--x-x--3--x-x----||--x-x-x-x--3-3-3-3-3-3-3-3----5-5-5-5-5-5-5-5---|
D|--------------------||--x-x-x-x--3-3-3-3-3-3-3-3----5-5-5-5-5-5-5-5---|

                      x7
e|--------------------||
B|--------------------||
G|--10------10--------||
D|-----10------10-----||
A|--------------------||
D|--------------------||




---[ Chorus ]---



Rhythm Guitar                      
                                                                        x2
e|----------------------------------------------------------------------||
B|----------------------------------------------------------------------||
G|-------------------5-5-5-5-5-5-5-5------------------------------------||
D|--3-3-3-3-3-3-3-3--5-5-5-5-5-5-5-5--7-7-7-7-7-7-7-7--5-5-5-5-5-5-5-5--||
A|--3-3-3-3-3-3-3-3--3-3-3-3-3-3-3-3--7-7-7-7-7-7-7-7--5-5-5-5-5-5-5-5--||
D|--3-3-3-3-3-3-3-3-------------------7-7-7-7-7-7-7-7--5-5-5-5-5-5-5-5--||


e|-----------------------------------------------------------------------|
B|-----------------------------------------------------------------------|
G|------------------ ----------------------------------------------------| 
D|--3-3-3--x-x-3-3---3-3---3---3-----7-7-7-7-7-7-7-7--5-5-5-5-5-5-5-5----|
A|--3-3-3--x-x-3-3---3-3---3---3-----7-7-7-7-7-7-7-7--5-5-5-5-5-5-5-5----|
D|--3-3-3--x-x-3-3---3-3---3---3-----7-7-7-7-7-7-7-7--5-5-5-5-5-5-5-5----|


e|-----------------------------------------------------------------------|
B|-----------------------------------------------------------------------|
G|-----------------------------------------------------------------------| 
D|--0-0-0-0-0-0-0-0--0-0-0-0-0-0-0-0--3-3-3-3-3-3-3-3-3\-----------------|
A|--0-0-0-0-0-0-0-0--0-0-0-0-0-0-0-0--3-3-3-3-3-3-3-3-3\-----------------|
D|--0-0-0-0-0-0-0-0--0-0-0-0-0-0-0-0--3-3-3-3-3-3-3-3-3\-----------------|


Lead Guitar
                                          x2                            x2
e|----------------------------------------||----------------------------||
B|-----13-------13-------13-------15------||--13-13-13-13-13-13-13-13---||
G|--12----12-12----12-14----14-12----12---||--12-12-12-12-12-12-12-12---|| 
D|----------------------------------------||----------------------------||
A|----------------------------------------||----------------------------||
D|----------------------------------------||----------------------------||

                                                               x2
e|--------------------------|----------------------------------||
B|------13----------15------|--15--15--15--15--15--15--15--15--||
G|--14------14--12------12--|--12--12--12--12--12--12--12--12--|| 
D|--------------------------|----------------------------------||
A|--------------------------|----------------------------------||
D|--------------------------|----------------------------------||


e|----------------------------------------|
B|--13--13--13--13--13--13--13--13---12\--|
G|--12--12--12--12--12--12--12--12---12\--| 
D|----------------------------------------|
A|----------------------------------------|
D|----------------------------------------|




---[ Chorus Bridge ]---



Rhythm Guitar                      
                                                   x2          
e|-------------------------------------------------||
B|-------------------------------------------------||
G|--5--5--5-----------5--5-----5--5----------------|| 
D|--5--5--5-----------5--5-----5--5----------------||
A|--3--3--3-----------3--3-----3--3----------------||
D|-------------------------------------------------||
    .     .     .     .     .     .     .     .     

e|--------------------------------------------------|
B|--------------------------------------------------|
G|-----5--5-----------5--5-----5--5-----------------| 
D|-----5--5-----------5--5-----5--5-----------------|
A|-----3--3-----------3--3-----3--3-----------------|
D|--------------------------------------------------|
    .     .     .     .     .     .     .     .      

e|--------------------------------------------------|
B|--------------------------------------------------|
G|--5--5--5-----------5--5\-------------------------| 
D|--3--5--5-----------5--5\-------------------------|
A|--3--3--3-----------3--3\-------------------------|
D|--------------------------------------------------|
    .     .     .     .     .     .     .     .          


Lead Guitar
                                                             x3  
e|-----------------------------------------------------------||
B|-----------------------------------------------------------||
G|--9--9--9--7--7--7--10--10--10--7--7--7--------------------|| 
D|-----------------------------------------10--10--10--10----||
A|-----------------------------------------------------------||
D|-----------------------------------------------------------||


e|----------------------------|
B|----------------------------|
G|--9--9--9--7--7--7--9--9\---| 
D|----------------------------|
A|----------------------------|
D|----------------------------|




---[ Bridge ]---   



Rhythm Guitar                      
             

                             x2
e|---------------------------||
B|---------------------------||
G|---------------------------||
D|---------------------------||
A|--3--3--3--3--3--3--3--3---||
D|--3--3--3--3--3--3--3--3---||




---[ Chorus ]---



Rhythm Guitar                      
                                                                        x3
e|----------------------------------------------------------------------||
B|----------------------------------------------------------------------||
G|-------------------5-5-5-5-5-5-5-5------------------------------------||
D|--3-3-3-3-3-3-3-3--5-5-5-5-5-5-5-5--7-7-7-7-7-7-7-7--5-5-5-5-5-5-5-5--||
A|--3-3-3-3-3-3-3-3--3-3-3-3-3-3-3-3--7-7-7-7-7-7-7-7--5-5-5-5-5-5-5-5--||
D|--3-3-3-3-3-3-3-3-------------------7-7-7-7-7-7-7-7--5-5-5-5-5-5-5-5--||


e|-----------------------------------------------------------------------|
B|-----------------------------------------------------------------------|
G|------------------ ----------------------------------------------------| 
D|--3-3-3--x-x-3-3---3-3---3---3-----7-7-7-7-7-7-7-7--5-5-5-5-5-5-5-5----|
A|--3-3-3--x-x-3-3---3-3---3---3-----7-7-7-7-7-7-7-7--5-5-5-5-5-5-5-5----|
D|--3-3-3--x-x-3-3---3-3---3---3-----7-7-7-7-7-7-7-7--5-5-5-5-5-5-5-5----|


e|-----------------------------------------------------------------------|
B|-----------------------------------------------------------------------|
G|-----------------------------------------------------------------------| 
D|--0-0-0-0-0-0-0-0--0-0-0-0-0-0-0-0--3-3-3-3-3-3-3-3--3-3-3-3-3-3-3-3---|
A|--0-0-0-0-0-0-0-0--0-0-0-0-0-0-0-0--3-3-3-3-3-3-3-3--3-3-3-3-3-3-3-3---|
D|--0-0-0-0-0-0-0-0--0-0-0-0-0-0-0-0--3-3-3-3-3-3-3-3--3-3-3-3-3-3-3-3---|


e|-----------------------------------------------------------------------|
B|-----------------------------------------------------------------------|
G|-----------------------------------------------------------------------| 
D|--0-0-0-0-0-0-0-0--0-0-0-0-0-0-0-0--3-3-3-3-3-3-3-3-3\-----------------|
A|--0-0-0-0-0-0-0-0--0-0-0-0-0-0-0-0--3-3-3-3-3-3-3-3-3\-----------------|
D|--0-0-0-0-0-0-0-0--0-0-0-0-0-0-0-0--3-3-3-3-3-3-3-3-3\-----------------|



Lead Guitar
                                          x3                            x2
e|----------------------------------------||----------------------------||
B|-----13-------13-------13-------15------||--13-13-13-13-13-13-13-13---||
G|--12----12-12----12-14----14-12----12---||--12-12-12-12-12-12-12-12---|| 
D|----------------------------------------||----------------------------||
A|----------------------------------------||----------------------------||
D|----------------------------------------||----------------------------||

                                                               
e|--------------------------|----------------------------------|
B|------13----------15------|--15--15--15--15--15--15--15--15--|
G|--14------14--12------12--|--12--12--12--12--12--12--12--12--| 
D|--------------------------|----------------------------------|
A|--------------------------|----------------------------------|
D|--------------------------|----------------------------------|

                                                              x2
e|--13-12----15-13-12-------|---------------------------------||
B|--------13----------13----|--13-13-13-13-13-13-13-13--------||
G|--------------------------|--12-12-12-12-12-12-12-12--------|| 
D|--------------------------|---------------------------------||
A|--------------------------|---------------------------------||
D|--------------------------|---------------------------------||

e|----------------------------------|--13-12----15-13-12-------|
B|--15--15--15--15--15--15--15--15--|--------13----------13----|
G|--12--12--12--12--12--12--12--12--|--------------------------|
D|----------------------------------|--------------------------|
A|----------------------------------|--------------------------|
D|----------------------------------|--------------------------|


e|----------------------------------------|
B|--13--13--13--13--13--13--13--13---12\--|
G|--12--12--12--12--12--12--12--12---12\--| 
D|----------------------------------------|
A|----------------------------------------|
D|----------------------------------------|




---[ The End ]---



Rhythm Guitar                      
                                                             
e|--------------------------------------------------|
B|--------------------------------------------------|
G|--5--5--5-----------5--5-----5--5-----------------| 
D|--5--5--5-----------5--5-----5--5-----------------|
A|--3--3--3-----------3--3-----3--3-----------------|
D|--------------------------------------------------|
    .     .     .     .     .     .     .     .   

e|--------------------------------------------------|
B|--------------------------------------------------|
G|--5--5--5-----------5--5-----5--5-----------------| 
D|--5--5--5-----------5--5-----5--5-----------------|
A|--3--3--3-----------3--3-----3--3-----------------|
D|--------------------------------------15\---------|
    .     .     .     .     .     .     .     .       

e|--------------------------------------------------|
B|--------------------------------------------------|
G|-----5--5-----------5--5-----5--5-----------------| 
D|-----5--5-----------5--5-----5--5-----------------|
A|-----3--3-----------3--3-----3--3-----------------|
D|--------------------------------------------------|
    .     .     .     .     .     .     .     .      

e|--------------------------------------------------|
B|--------------------------------------------------|
G|--5--5--5-----------5--5\-------------------------| 
D|--3--5--5-----------5--5\-------------------------|
A|--3--3--3-----------3--3\-------------------------|
D|--------------------------------------------------|
    .     .     .     .     .     .     .     .       


Lead Guitar
                                                             x3  
e|-----------------------------------------------------------||
B|-----------------------------------------------------------||
G|--9--9--9--7--7--7--10--10--10--7--7--7--------------------|| 
D|-----------------------------------------10--10--10--10----||
A|-----------------------------------------------------------||
D|-----------------------------------------------------------||


e|----------------------------|
B|----------------------------|
G|--9--9--9--7--7--7--9--9\---| 
D|----------------------------|
A|----------------------------|
D|----------------------------|



Have Fun ! :)
Arno.
comments
We did not receive enough feedback on this tab! Please rate:
1 2 3 4 5
I want to post or [tab]
guest
You may want to rate the tab now too:
select rating
Please do not post tabs as comments. Select "correction" instead!