Oops, an error
Loading. Please wait.

No Pads No Helmets Just Balls Tab

14,386 views 6 this week
6 commentsread comments
1 2 3 4 5
accurate
x 10
add to favorites launch autoscroll
font size
0
reset
Autoscroll
+/-
esc
set tempo
stop
Contributor
WARNING: You are trying to view
                                    content from Ultimate-Guitar.com
                                    in an unauthorized application,
                                    which is prohibited.

                                    Please use an official Ultimate
                                    Guitar Tabs application for iPhone,
                                    iPad or Android to access legitimate
                                    chords, guitar, bass, and drum tabs
                                    from Ultimate-Guitar.com database.

                                    Type "ultimate guitar tabs" in Apple
                                    App Store's or Android Market's
                                    search to find the application.
1. I'd do anything
Intro

e-----------------------------|
B-----------------------------|
G-----------------------------|  x3
D------3--6----5--8--6----6---|
A--4--------6-------------6---|
E-------------------------4---|

e------------------------------------------------------------|
B------------------------------------------------------------|
G-------------------------------------6----------------------|    x4
D--6--5--6---6--5--6--6--6---5--6--6--6-----3--6--5--8--6----|
A------------------------6------------4---4-----------6------|
E------------------------4-----------------------------------|

              P.M.
e------------------------|
B------------------------|
G---------------6-6------|
D-6--6--6--6----6-6------|
A---------------4-4------|
E------------------------|

e----------------------------------------|
B----------------------------------------|
G-------------------------------6-6-6-6--|
D--6-6-6-6---5-5-5-5---3-3-3-3--6-6-6-6--|
A--6-6-6-6---5-5-5-5---3-3-3-3--4-4-4-4--|
E--4-4-4-4---3-3-3-3---1-1-1-1-----------|
2. Worst day ever
e: --------------------------------------------------------------------------|
B: --------------------------------------------------------------------------|
G: -44444444----------44444444----------44444444-----------------------------|
D: -44444444-44444444-44444444-44444444-44444444-44444444-66666666-2--2--222-|
A: -22222222-44444444-22222222-44444444-22222222-44444444-66666666-2--2--222-|
E: ----------22222222----------22222222----------22222222-44444444-0--0--000-|
									 P.M
   Nothing during:
   Six Am the clock is ringin' I need to spend an hour snoozing
   then:

   Cuz I don't think I'm gonna make it.
e: --------------|
B: --------------|
G: --------------|
D: -66-66--44-44-|
A: -66-66--44-44-|
E: -44-44--22-22-|

   I punch in, I'm still sleeping watch the clock but it's not moving
e: ---|
B: ---|
G: -4-|
D: -4-|
A: -2-|
E: ---| Let Ring

   Pre Chorus:
   Cuz everyday is never ending I need to work I'm allways spending
e: ------------------------------|
B: ------------------------------|
G: ------------------------------|
D: -66-66--44-44--2-2-2-2-4----4-|
A: -66-66--44-44--2-2-2-2-4----4-|
E: -44-44--22-22--0-0-0-0-2----2-|

   Chorus:
   And I feel like I'm living the worst day over and over again... And I
e: --------------------------------------|
B: --------------------------------------|
G: -44444444---------4444----------------|
D: -44444444-2222222-4444-4444-2222--6-4-|
A: -22222222-2222222-2222-4444-2222--6-4-|
E: ----------0000000------2222-0000--4-2-|

   feel like the summer is leaving again... I
e: -----------------------------------|
B: -----------------------------------|
G: -44444444--------------------------|
D: -44444444-66666666-44444444--------|
A: -22222222-66666666-44444444--------|
E: ----------44444444-22222222--0-2-0-|


   feel like I'm living the worst day, I feel like you're gone
e: --------------------------------------|
B: --------------------------------------|
G: -444444444-------------------66666666-|
D: -444444444-22222222-66666666-66666666-|
A: -222222222-22222222-66666666-44444444-|
E: -----------00000000-44444444----------|

   And everyday is the worst day ever
e: ---------------------------------|
B: ---------------------------------|
G: ---------------------------------|
D: ----2---------------2---------4--|
A: ----2-Stop----------2-Stop----4--|
E: ----0---------------0---------2--|

   Intro Again:
e: -------------------------------------|
B: -------------------------------------|
G: -44444444----------44444444----------|
D: -44444444-44444444-44444444-44444444-|
A: -22222222-44444444-22222222-44444444-|
E: ----------22222222----------22222222-|

   Verse 2:
   Yesterday was the worst day ever and tomorrow won't be better
   it's history repeating (on and on)
e: ---|
B: ---|
G: -4-|
D: -4-|	Let ring
A: -2-|
E: ---|

   Summer plans are gone forever, I trade them in for dishpan water
e: ----------------------------------|
B: ----------------------------------|
G: -44444444444444444444444444444444-|
D: -22222222222222222222222222222222-|
A: -22222222222222222222222222222222-|
E: ----------------------------------|
    P.M (slowly letting go to open chord)

   Pre Chorus:
   Cuz everyday is never ending I need to work I'm allways spending
e: ------------------------------|
B: ------------------------------|
G: ------------------------------|
D: -66-66--44-44--2-2-2-2-4----4-|
A: -66-66--44-44--2-2-2-2-4----4-|
E: -44-44--22-22--0-0-0-0-2----2-|

   Chorus:
   And I feel like I'm living the worst day over and over again... And I
e: --------------------------------------|
B: --------------------------------------|
G: -44444444---------4444----------------|
D: -44444444-2222222-4444-4444-2222--6-4-|
A: -22222222-2222222-2222-4444-2222--6-4-|
E: ----------0000000------2222-0000--4-2-|

   feel like the summer is leaving again... I
e: -----------------------------------|
B: -----------------------------------|
G: -44444444--------------------------|
D: -44444444-66666666-44444444--------|
A: -22222222-66666666-44444444--------|
E: ----------44444444-22222222--0-2-0-|

   feel like I'm living the worst day, I feel like you're gone
e: -------------------------------------|
B: -------------------------------------|
G: -44444444-------------------66666666-|
D: -44444444-22222222-66666666-66666666-|
A: -22222222-22222222-66666666-44444444-|
E: ----------00000000-44444444----------|


   And everyday is the worst day ever
e: ---------------------------------|
B: ---------------------------------|
G: ---------------------------------|
D: ----2---------------2---------4--|
A: ----2-Stop----------2-Stop----4--|
E: ----0---------------0---------2--|

             Whoohoo  And Everyday is the worst day ever
e: ---------------------------------------------------|
B: ---------------------------------------------------|
G: -44444444------------------------------------------|
D: -44444444-44444444-----2----4---------------2----4-|
A: -22222222-44444444-----2----4---------------2----4-|
E: ----------22222222-----0----2---------------0----2-|

   Bridge:
   It's so long, I can't go on
e: ------------------------------------|
B: ------------------------------------|
G: -6666666666666666-------------------|
D: -6666666666666666-44444444-66666666-|
A: -4444444444444444-44444444-66666666-|
E: ------------------22222222-44444444-| 3x

   Chorus: (clean)
   And I feel like I'm living the worst day over and over again... And I
e: ----------------------------------|
B: ----------------------------------|
G: -66666666----------6666-----------|
D: -66666666-44444444-6666-6666-4444-|
A: -44444444-44444444-4444-6666-4444-|
E: ----------22222222------4444-2222-|

   (Distortion again)
   feel like the summer is leaving again... I
e: -----------------------------------|
B: -----------------------------------|
G: -66666666--------------------------|
D: -66666666-88888888-66666666--------|
A: -44444444-88888888-66666666--------|
E: ----------66666666-44444444--2-4-2-|

   feel like I'm living the worst day, I feel like you're gone
e: -------------------------------------|
B: -------------------------------------|
G: -66666666-------------------88888888-|
D: -66666666-44444444-88888888-88888888-|
A: -44444444-44444444-88888888-66666666-|
E: ----------22222222-66666666----------|

   And everyday is the worst day ever
e: ---------------------------------|
B: ---------------------------------|
G: ---------------------------------|
D: ----4----6-----------4--------6--|
A: ----4----6-----------4--------6--|
E: ----2----4-----------2--------4--|


   WHooo whoohoo and everyday is the worst day ever
e: --------------------------------------|
B: --------------------------------------|
G: -66666666-----------------------------|
D: -66666666-66666666-4----6-----------4-|
A: -44444444-66666666-4----6-----------4-|
E: ----------44444444-2----4-----------2-| Let Ring

   Whooo whoohoo whoo whoohoohoo	(It's the worst day ever)
e: -------------------------------------|
B: -------------------------------------|
G: -66666666----------------------------|
D: -66666666-66666666-88888888-44444444-|
A: -44444444-66666666-88888888-44444444-|
E: ----------44444444-66666666-22222222-| 3x

   End:
   Whooo whoohoo      Whowho  Whoohoohoooo
e: -------------------------------------|
B: -------------------------------------|
G: -66666666----------------------------|
D: -66666666-66666666-8---8----4--------|
A: -44444444-66666666-8---8----4--------|
E: ----------44444444-6---6----2--------| Let Ring
3. You don't mean anything to me
intro:
----------------------------------------------------------------------------|
-5-5-5-5---------5-5-5-5----------------------------------------------------|
-5-5-5-5-5-5-5-5-5-5-5-5-5-5-5-5--------------------------------------------|
-3-3-3-3-5-5-5-5-3-3-3-3-5-5-5-5--------------------------------------------|
---------3-3-3-3---------3-3-3-3--------------------------------------------|
lead intro:
----------------------------------------------------------------------------|
----------------------------------------------------------------------------|
-5-5-7-7-10-10-9-9-9\\7--9\\7-----------------------------------------------|
----------------------------------------------------------------------------|
-3-3-5-5-8--8--7-7-7\\5--7\\5-----------------------------------------------|
----------------------------------------------------------------------------|
verse:
----------------------------------------------------------------------------|
----------------------------------------------------------------------------|
-5-5-5-5-5-5-5-5-2-2-2-2----------------------------------------------------|
-5-5-5-5-5-5-5-5-2-2-2-2-5-5-5-5-3-3-3-3-5-5-5-5----------------------------|
-3-3-3-3-2-2-2-2-0-0-0-0-5-5-5-5-3-3-3-3-5-5-5-5----------------------------|
-------------------------3-3-3-3-1-1-1-1-3-3-3-3----------------------------|
lead guitar for verse:
----------------------------------------------------------------------------|
-----1-----1-----1-----1--------------1p0h1h3p1p0-----1-------0h1-----------|
-----------------------------2-----2------------------------------------2---|
----------------------------------------------------------------------------|
-3-3--32-2--20-0----------------------------------3-3---3-2-2-----2-0-0---3-|
-------------------3-3--31-1---1-1------------------------------------------|
continued:
----------------------------------------------------------------------------|
---0h1----------------1p0h1h3p1p0-------------------------------------------|
-------------2-----2--------------------------------------------------------|
----------------------------------------------------------------------------|
-3-----3-1-1---1-1----------------------------------------------------------|
----------------------------------------------------------------------------|
chorus:
-0---0---0---0---------------------------------------------------------------|
-0---1---0---1---------------------------------------------------------------|
-0---2---0---2---7-7-7-7-5-5-5-5---------------------------------------------|
-2---2---2---2---7-7-7-7-5-5-5-5-5-5-5-5-3-3-3-3-----------------------------|
-2---0---2---0---5-5-5-5-3-3-3-3-5-5-5-5-3-3-3-3-----------------------------|
-0-------0-----------------------3-3-3-3-1-1-1-1-----------------------------|
bridge:
-0---3---3--0-0-0---3---3--0-0-0---3--3---3-3-3-3-1-1-1-1-------------------|
-1---1---3--1-1-1---1---3--1-1-1---1--1---3-3-3-3-1-1-1-1-------------------|
-2---2---0--0-0-2---2---0--0-0-2---2--2---0-0-0-0-2-2-2-2-------------------|
-2---0---0--2-0-2---0---0--2-0-2---0--0---0-0-0-0-3-3-3-3-------------------|
-0-------2--3-2-0-------2--3-2-0----------2-2-2-2-3-3-3-3-------------------|
---------3--------------3-----------------3-3-3-3-1-1-1-1-------------------|
4. I'm Just A Kid
Intro
   X3
e|---------------------------|----------------------------------|
B|---------------------------|----------------------------------|
G|---6------6-------6------6-|-------6--------6--------6-5------|
D|--------6-------6------6---|-----6--------6--------6----------|
A|-4-------------------------|---4--------4--------4------------|
D|------4-------6------4-----|-3--------4--------6--------------|


e|--------------------------|
B|--------------------------|
G|--------4--------4--------|
D|---1--4--------4--------4-|
A|-------------6--------6---|
D|-1---------4--------6-----|


Chorus

e|--------------------------------|--------------------------------|
B|--------------------------------|--------------------------------|
G|--------------------------------|--------------------------------|
D|-6-6-6--4--4-4--4-6-6-6--6--6-6-|-6-6-6--4--4-4--4-6-6-6--4--4-4-|
A|-4-4-4--4--4-4--4-6-6-6--4--4-4-|-4-4-4--4--4-4--4-6-6-6--4--4-4-|
D|-6-6-6--4--4-4--4-6-6-6--6--6-6-|-6-6-6--4--4-4--4-6-6-6--4--4-4-|


e|--------------------------------|--------------------------------|
B|--------------------------------|--------------------------------|
G|--------------------------------|--------------------------------|
D|-1-1-1--4--4-4--4-6-6-6--6--6-6-|-1-1-1--4--4-4--4-6-6-6-6-6-6-6-|
A|-1-1-1--4--4-4--4-4-4-4--6--6-6-|-1-1-1--4--4-4--4-6-6-6-6-6-6-6-|
D|-1-1-1--4--4-4--4-6-6-6--6--6-6-|-1-1-1--4--4-4--4-6-6-6-6-6-6-6-|


VERSE
e|---------------------------|----------------------------------|
B|---------------------------|----------------------------------|
G|---6------6-------6------6-|-------6--------6--------6-5------|
D|--------6-------6------6---|-----6--------6--------6----------|
A|-4-------------------------|---4--------4--------4------------|
D|------4-------6------4-----|-3--------4--------6--------------|


e|--------------------------|
B|--------------------------|
G|--------4--------4--------|
D|---1--4--------4--------4-|
A|-------------6--------6---|
D|-1---------4--------6-----|

               pm.................................
e|------------------------------------|
B|------------------------------------|
G|------------------------------------|
D|-6-6-6-6--4-4-4-4--6-6-6-6--4-4-4-4-|
A|-4-4-4-4--4-4-4-4--6-6-6-6--4-4-4-4-|
D|-6-6-6-6--4-4-4-4--6-6-6-6--4-4-4-4-|

   pm..............
e|----------------------------|
B|----------------------------|
G|----------------------------|
D|-1-1-1-1--4-4-4-4---6--6--6-|
A|-1-1-1-1--4-4-4-4---6--6--6-|
D|-1-1-1-1--4-4-4-4---6--6--6-|


- Chorus
     +
   What the *** is wrong with me...
e|------------------------------------------------------------|
B|------------------------------------------------------------|
G|------------------------------------------------------------|
D|-4-4-4-4-4-4-4---6-6-6-6-6-6---6-6-6-6-6---6--4-4-4-4---6-4-|
A|-4-4-4-4-4-4-4---6-6-6-6-6-6---4-4-4-4-4---6--4-4-4-4---6-4-|
D|-4-4-4-4-4-4-4---6-6-6-6-6-6---6-6-6-6-6---6--4-4-4-4---6-4-|


e|------------------------------------------------------|
B|------------------------------------------------------|
G|------------------------------------------------------|
D|-4-4-4-4-4-4-4---6-6-6----6-6-6-6-6---1-1-1-1-1-----6-|
A|-4-4-4-4-4-4-4---6-6-6----4-4-4-4-4---1-1-1-1-1-----6-|
D|-4-4-4-4-4-4-4---6-6-6----6-6-6-6-6---1-1-1-1-1-----6-|


- Intro
- Chorus


Outro

e|-------------------------------------------------|
B|-------------------------------------------------|
G|-------------------------------------------------|
D|-4-4-4-4-4-4-4-4--6-6-6-6-6-6-6-6--6-6-6-6-6-6-6-|
A|-4-4-4-4-4-4-4-4--6-6-6-6-6-6-6-6--4-4-4-4-4-4-4-|
D|-4-4-4-4-4-4-4-4--6-6-6-6-6-6-6-6--6-6-6-6-6-6-6-|


e|--------------------------------------------------------------|
B|--------------------------------------------------------------|
G|--------------------------------------------------------------|
D|-8-8-8-8-8-8-8-8---4-4-4-4-4-4-4-4---6-6-6-6-6-6-6-6--6--6--4-|
A|-8-8-8-8-8-8-8-8---4-4-4-4-4-4-4-4---6-6-6-6-6-6-6-6--4--6--4-|
D|-8-8-8-8-8-8-8-8---4-4-4-4-4-4-4-4---6-6-6-6-6-6-6-6--6--6--4-|
5. When I'm with you
intro: distortion
e--5--5-5--5--5----------------5--5-5--5--5--------------|
b--5--5-5--5--5----------------5--5-5--5--5--------------|
g--6--7-7--6--7--6-6--4-4-4----6--7-7--6--7-11-11--9-9-9-|
d--7--7-7--7--7----------------7--7-7--7--7--------------|
a--7--5-5--7--5--4-4--2-2-2----7--5-5--7--5--9-9---7-7-7-|
e--5--5-5--5--5----------------5--5-5--5--5--------------|

verse: distortion(palm muted)
e---------------------------------------|
b---------------------------------------|
g---------------------7-7-7-7-----------|
d--7-7-7-7--9-9-9-9---7-7-7-7---9-9-9-9-|
a--7-7-7-7--9-9-9-9---5-5-5-5---9-9-9-9-|
e--5-5-5-5--7-7-7-7-------------7-7-7-7-|

e---------------------5--5-5-|
b---------------------5--5-5-|
g---------------------7--6-6-|
d--7-7-7-7--9-9-9-9---7--7-7-|
a--7-7-7-7--9-9-9-9---5--7-7-|
e--5-5-5-5--7-7-7-7---5--5-5-|

play the verse twice


chorus: distortion
e-------------------------------------------------|
b-------------------------------------------------|
g--------------------------7-7-7-7-7--------------|
d--7-7-7-7-7---9-9-9-9-9---7-7-7-7-7---6-6-6-6-6--| 2x
a--7-7-7-7-7---9-9-9-9-9---5-5-5-5-5---7-7-7-7-7--|
e--5-5-5-5-5---7-7-7-7-7---5-5-5-5-5---7-7-7-7-7--|

e--------------------------------------------|
b--------------------------------------------|
g----------------------------------7-------6-|
d--4-4-4-4-4-4-4---2-2-2-2-2-----------------|
a--4-4-4-4-4-4-4---2-2-2-2-2--8-8----7-7-7---|
e--2-2-2-2-2-2-2---0-0-0-0-0-----------------|

e----------------------------|
b----------------------------|
g----------------------------|
d--4-4-4-4-4-4-4---2-2-2-2-2-|
a--4-4-4-4-4-4-4---2-2-2-2-2-|
e--2-2-2-2-2-2-2---0-0-0-0-0-|

intro

verse

chorus

bridge:
e--5--5-5--5--5---5-5-5-5-5------|
b--5--5-7--5--5---5-5-5-5-5------|
g--6--7-7--6--7---6-7-6-7-6------|
d--7--7-7--7--7---7-7-7-7-7------| 3x
a--7--5-5--7--5---5-5-5-5-5------|
e--5--5-5--5--5---5-5-5-5-5------|

e--------------------------|
b--------------------------|
g--7---9---10--12---14-----|
d--------------------------|
a--5---7---9---10---12-----|
e--------------------------|

e--5--5-5--5--5---5-5-5-5-5------|
b--5--5-7--5--5---5-5-5-5-5------|
g--6--7-7--6--7---6-7-6-7-6------|
d--7--7-7--7--7---7-7-7-7-7------| 3x
a--7--5-5--7--5---5-5-5-5-5------|
e--5--5-5--5--5---5-5-5-5-5------|

e--------------------------|
b--------------------------|
g--7---9---10--12---14-----|
d--------------------------|
a--5---7---9---10---12-----|
e--------------------------|


e--5--5-5--5--5-----------------|
b--5--5-5--5--5-----------------|
g--6--7-7--6--7--6-6---4-4-4----|
d--7--7-7--7--7-----------------|
a--7--5-5--7--5--4-4---2-2-2----|
e--5--5-5--5--5-----------------|


e--5--5-5----------------------------|
b--5--5-5----------------------------|
g--6--7-7---11-11-9-9--6-6--4-4-4----|
d--7--7-7----------------------------|
a--7--5-5----9-9--7-7--4-4--2-2-2----|
e--5--5-5----------------------------|

chorus 3x

then end on..
e-------------|
b-------------|
g-------------|
d---7---------|
a---7---------|
e---5---------|
6. Meet you there
Intro/verse
|---------------------------------------------------------------------| X6
|---------------------------------------------------------------------|
|-3-3-3-4-4-4-4-4--3-3-3-4-4-4-4-4------------------------------------|
|-----------------------------------1-1-1-2-2-2-2-2--1-1-1-2-2-2-2-2--|
|---------------------------------------------------------------------|
|---------------------------------------------------------------------|

Interlude "youre gone away..."
   B        F#m
|-0-0----|-2-2----|------0-|-0-0-----0-|------------------------------| X2
|-4-4-4--|-2-2----|-----1--|-0-0-0---0-|------------------------------|
|-4-4---4|-3-3-3--|--------|-1-1---1-1-|------------------------------|
|-4-4----|-4-4---4|-3-3----|-2-2-----2-|------------------------------|
|-2-2----|-4-4----|-3-3----|-2-2-----2-|------------------------------|
|--------|-2-2----|-1-1----|-0-0-----0-|------------------------------|
Chorus "I'll meet you there..."
         B             F
|-0-------------|-1-1-0---|-------------------------| X2
|-4--4----------|-1-----3-|-------------------------|
|-4----4---4----|-2-------|-------------------------|
|-4-4----4------|-3-------|-------------------------|
|-2-------------|---------|-------------------------|
|-0-------------|---------|-------------------------|

Intro/Verse X4

INTERLUDE X2

Chorus X2

Solo thingy
|---------------------------------------------------------------| X4
|---------------------------------------------------------------|
|---------------------------------------------------------------|
|-22-/-66-/-99-/-44-xxx-----------------------------------------|
|-22-/-66-/-99-/-44-xxx-----------------------------------------|
|-00-/-44-/-77-/-22-xxx-----------------------------------------|

|---------------------------------------------------------------| X4
|---------------------------------------------------------------|
|---------------------------------------------------------------|
|-22-/-66-/-99-/-44-444-----------------------------------------|
|-22-/-66-/-99-/-44-444-----------------------------------------|
|-00-/-44-/-77-/-22-222-----------------------------------------|

[Pause]

|---------------------------------------------------------------| X4
|---------------------------------------------------------------|
|---------------------------------------------------------------|
|-22-/-66-/-99-/-44---------------------------------------------|
|-22-/-66-/-99-/-44---------------------------------------------|
|-00-/-44-/-77-/-22---------------------------------------------|

CHORUS X3

END ON
|---------------------------------------------------------------------|
|---------------------------------------------------------------------|
|-4-------------------------------------------------------------------|
|-4-------------------------------------------------------------------|
|-2-------------------------------------------------------------------|
|---------------------------------------------------------------------|
7. Addicted
droped down half a step Eb-Ab-Db-Gb-Bb-Eb
Intro
E----9---14-13-9---9---14-13-9---9---14-13-9---9---14-13-9-----||
B--9---9---------9---9---------9---9---------9---9-------------||
G--------------------------------------------------------------||
D--------------------------------------------------------------||
A--------------------------------------------------------------||
E--------------------------------------------------------------||

Intro
E----9---14-13-9---9---14-13-9---9---14-13-9---9---14-13-9-----||
B--9---9---------9---9---------9---9---------9---9---------9---||
G--6-6-6-6-6-6-6-6-6-6-6-6-6-6--------------------------------6||
D--6-6-6-6-6-6-6-6-6-6-6-6-6-6-4-4-4-4-4-4-4-6-6-6-6-6-6-6-6--6||
A—-4-4-4-4-4-4-4-4-4-4-4-4-4-4-4-4-4-4-4-4-4-6-6-6-6-6-6-6-6--4||
E------------------------------2-2-2-2-2-2-2-4-4-4-4-4-4-4-4---||

Riff
E--------------------------------------------------------------||
B--------------------------------------------------------------||
G--666-6--666-6--666-6--666-6----------------------------------||
D—-666-6--666-6--666-6--666-6--444-4--444-4--444-4--444-4------||
A--444-4--444-4--444-4--444-4--444-4--222-2--222-2--222-2------||
E------------------------------222-2--222-2--222-2--222-2------||
(m) (m) (m) (m) (m) (m) (m) (m)

Chorus
E----------------------------------------------------------------||
B----------------------------------------------------------------||
G--6666666-------6-----------------------------------------------||
D--6666666--444--6--6--------------------------------------------||
A--4444444--444--4--6--------------------------------------------||
E-----------222-----4--------------------------------------------||
8. My alien
e{-------------------------------------------------------------------|
B{-------------------------------------------------------------------|
G{-------------------------------------------------------------------|
D{-----7---6---7-------7---6---7------6-7---6---7------6-7---6---6h7-|
A{---7---7---7---7---7---7---7---7--5-----5---5---5--7-----7---7-----|
E{-5---------------5-------------------------------------------------|

e{-----------------------------------------|
B{-----------------------------------------|
G{-18--19--21--14-/-18-\-16-/-18-\-16------|
D{-----------------------------------------|
A{-16--17--19--12-/-16-\-14-/-16-\-14------|
E{-----------------------------------------|

here's the lead riff

e{--------------------------------------------------|
B{--------------------------------------------------|
G{--------------------------9-9-9-9-----------------|
D{--2-2-2-2-6-6-6-6-7-7-7-7-9-9-9-9-----------------|
A{--2-2-2-2-6-6-6-6-7-7-7-7-7-7-7-7-----------------|
E{--0-0-0-0-4-4-4-4-5-5-5-5-0-0-0-0-----------------|

Here's the rythm during the lead riff

e{------------|---------|------------------------|
B{------------|---------|------------------------|
G{------------|-9-9-9-9-|-18---16--18---16-------|
D{-11-11-11-11|-9-9-9-9-|------------------------|
A{-11-11-11-11|-7-7-7-7-|-16---14--16---14-------|
E{-9--9--9--9-|-0-0-0-0-|------------------------|

Somewhere where no body will know our faces

e{------------------------------------------------------------|
B{------------------------------------------------------------|
G{-2-2-2-2-----------------7-7-7-7-2-2-2-2---------2-2-2-2-7--|
D{-2-2-2-2-2-2-2-2-4-4-4-4-7-7-7-7-2-2-2-2-4-4-4-4-2-2-2-2-7--|
A{-0-0-0-0-2-2-2-2-4-4-4-4-5-5-5-5-0-0-0-0-4-4-4-4-0-0-0-0-5--|
E{---------0-0-0-0-2-2-2-2-----------------2-2-2-2------------|

e{------------------------------------------------------------------------------|
B{------------------------------------------------------------------------------|
G{---------------------------------------------7-7-7-----------9-9-9------------|
D{-----6---7-------7-----6-7-6---6-7---6---7---7-7-7-9-9-9---6--7----6---7-7-7--|
A{---7---7---7---7---7-7-------5-----5---5---5-5-5-5-7-7-7-9-----9---9---5-5-5--|
E{-5-----------5----------------------------------------------------------------|

 She can take me to the place that she calls home
e{-------------------------------------|
B{-------------------------------------|
G{-9-9-9---------------7-7--9-9--------|
D{-9-9-9---6-7---6---7-7-7--9-9--------|
A{-7-7-7-9-----9---9---5-5--7-7--------|
E{-------------------------------------|

e{---------------------------------------|
B{---------------------------------------|
G{-2-2-2-2-----------------7-7-7-7-------|
D{-2-2-2-2-2-2-2-2-4-4-4-4-7-7-7-7-------|
A{-0-0-0-0-2-2-2-2-4-4-4-4-5-5-5-5-------|
E{---------0-0-0-0-2-2-2-2---------------|

e{--------------------------------------------------------------------------|
B{--------------------------------------------------------------------------|
G{--------9-9---------------------------9-9---------------------------------|
D{-----7-9-9-7-----7-9-9-7-----7-9-9-7-----7-9-9-7-----7-9-9-7-----7-9-9-7--|
A{-0-0---------------------5-5----------------------9-9---------------------|
E{--------------------------------------------------------------------------|

e{-----9-10----9-9-------9-10-12----12----12----12-12b-|--12----|
B{--10------10-----12-10---------10----10----10--------|--10----|
G{-----------------------------------------------------|--9-----|
D{-----------------------------------------------------|--------|
A{-----------------------------------------------------|--------|
E{-----------------------------------------------------|--------|
9.God must hate me
Intro (2 Guitars - bend the notes ~1/4)           2nd time ending
    i think this is in the right octive...might be high though
e|------------------------------------------------|--------|
B|-12---14---12---121214---12---14--15T--14-14-14-|-\\12---|
G|---11---11---11-111111-----11---11--------------|--------|
D|------------------------------------------------|--------|
A|------------------------------------------------|--------|
E|------------------------------------------------|--------|
 |                                                |     |
 |                                                |     | x2
e|------------------------------------------------|-----|
B|------------------------------------------------|-----|
G|-4--4--------------------4--4-------------------|--4--|
D|-4--4--4--4--2--2--444---4--4--4--4--2222-5-5-5-|--x--|
A|-2--2--4--4--2--2--444---2--2--4--4--2222-5-5-5-|--2--|
E|-------2--2--0--0--222---------2--2--0000-3-3-3-|-----|

Verse1 - Bass

Pre-Chorus (2 Guitars)
e| ----------------------------------------------|
B| ----------------------------------0-----------|
G| -------------------------6---6----4-----------|
D| ---2----4---------------4-4-4-4--2-4----------|
A| --2-2--4-4--9--9--6--4-4---4----2----44444444-|
E| -0----2----7--6--4--2----------------22222222-|
 |                                               |
 |                                               |x1
e| ----------------------------------------------|
B| ----------------------------------------------|
G| ----------------------------------------------|
D| ----------------------------------------------|
A| -2222-4444-99-99-66-44-44444444-2222-44444444-|
E| -0000-2222-77-66-44-22-11111111-0000-22222222-|
    **** ****

Chorus (2 Guitars play same thing)
e|----------------------------------------------|
B|----------------------------------------------|
G|-4--4-------------------4--4------------------|
D|-4--4--4--4--2--2--444--4--4--4--4--2--2--444-| x1
A|-2--2--4--4--2--2--444--2--2--4--4--2--2--444-|
E|-------2--2--0--0--222--------2--2--0--0--222-|

Post-Chorus (2 Guitars)
e| ---------------------|
B| ---4----4------------|
G| --4-4--4-4-----------|
D| ---------------------|
A| -----------2-2-2-2-4-|
E| -4----1----0-0-0-0-2-|
 |                      |
 |                      | x1
e| ---------------------|
B| ---------------------|
G| ---------------------|
D| ---------------------|
A| -2222-4444-2-2-2-2-4-|
E| -4444-1111-0-0-0-0-2-|

Repeat "Intro 2nd time thru"

Verse2 - Bass Again!

Pre-Chorus (2 Guitars)
e| ----------------------------------------------|
B| ----------------------------------0-----------|
G| -------------------------6---6----4-----------|
D| ---2----4---------------4-4-4-4--2-4----------|
A| --2-2--4-4--9--9--6--4-4---4----2----44444444-|
E| -0----2----7--6--4--2----------------22222222-|
 |                                               |
 |                                               |x1
e| ----------------------------------------------|
B| ----------------------------------------------|
G| ----------------------------------------------|
D| ----------------------------------------------|
A| -2222-4444-99-99-66-44-44444444-2222-44444444-|
E| -0000-2222-77-66-44-22-11111111-0000-22222222-|
    **** ****

Chorus (2 Guitars play same thing)
e|----------------------------------------------|
B|----------------------------------------------|
G|-4--4-------------------4--4------------------|
D|-4--4--4--4--2--2--444--4--4--4--4--2--2--444-| x1
A|-2--2--4--4--2--2--444--2--2--4--4--2--2--444-|
E|-------2--2--0--0--222--------2--2--0--0--222-|

Post-Chorus (2 Guitars)
e| -------------------------|
B| ---4----4----4-----------|
G| --4-4--4-4--4-4----------|
D| -------------------------|
A| ----------------44444444-|
E| -4----1----0----22222222-|
 |                          | x1
e| -------------------------|
B| -------------------------|
G| -------------------------|
D| -------------------------|
A| -2222-4444-2222-44444444-|
E| -4444-1111-0000-22222222-|


Bridge (2 Guitars with the 2nd guitar having ?Tremolo effect?)
       (by the way, the notes aren't really accurate for this part)
e| -------------14-14-------14-14-14-------12-12-12------------|
B| -12-12-11-11-------12-11----------12-11----------14-14------|
G| ------------------------------------------------------------|
D| ------------------------------------------------------------|
A| ------------------------------------------------------44444-|
E| ------------------------------------------------------22222-|
 |                                                             |
 |                                                             | x1
e| ------------------------------------------------------------|
B| ------------------------------------------------------------|
G| ----------------------------4-4-----------------------------|
D| ----------------------------4-4-2---------------------------|
A| -22222222-44444444-22222222-2-2-2-222222222222-444444444444-|
E| -00000000-22222222-00000000-----0-000000000000-222222222222-|
    ******** ******** ********       ************ *******


e| ---------------|
B| ---------------|
G| ---------------|
D| ----------6889-|
A| ----667-99-----|
E| -779-----------|
 |                | x1
e| ---------------|
B| ---------------|
G| ---------------|
D| ---------------|
A| -4444444444444-|
E| -2222222222222-|


Chorus (2 Guitars play same thing; notice the key change!)
e|----------------------------------------------|
B|----------------------------------------------|
G|-6--6-------------------6--6------------------|
D|-6--6--6--6--4--4--666--6--6--6--6--4--4--666-| x2
A|-4--4--6--6--4--4--666--4--4--6--6--4--4--666-|
E|-------4--4--2--2--444--------4--4--2--2--444-|

Post-Chorus
e| -------------------------|
B| ---6----6----6-----------|
G| --6-6--6-6--6-6----------|
D| -------------------------|
A| ----------------66666666-|
E| -6----3----2----44444444-|
 |                          |
 |                          | x1
e| -------------------------|
B| -------------------------|
G| -------------------------|
D| -------------------------|
A| -4444-6666-4444-66666666-|
E| -6666-3333-2222-44444444-|

Chorus (2 Guitars play same thing)
e|----------------------------------------------|
B|----------------------------------------------|
G|-6--6-------------------6--6------------------|
D|-6--6--6--6--4--4--666--6--6--6--6--4--4--666-| x1
A|-4--4--6--6--4--4--666--4--4--6--6--4--4--666-|
E|-------4--4--2--2--444--------4--4--2--2--444-|


Chorus (2 Guitars play same thing)
e|----------------------------------------------|
B|----------------------------------------------|
G|-xxx6-------------------xxx6------------------|
D|-xxx6--xxx6--4--4--666--xxx6--xxx6--4--4--666-| x1
A|-xxx4--xxx6--4--4--666--xxx4--xxx6--4--4--666-|
E|-------xxx4--2--2--444--------xxx4--2--2--444-|

Ending
e|---------------------|
B|---------------------|
G|-6-6-6-6-------------|
D|-6-6-6-6--6-6-6-6--4-| x1
A|-4-4-4-4--6-6-6-6--4-|
E|----------4-4-4-4--2-|
10. I won't be there
intro:
e---------------------------------------------------------------------------|
B---------------------------------------------------------------------------|
G----2-2-2-6-4---4-2-4---4-2-4-6-4-2-4-6---------6-4------------------------|
D-2--2-2-2-6-4-2-4-2-4-2-4-2-4-6-4-2-4-6-6-7-7-7-6-4-2----------------------|
A-2--0-0-0-4-2-2-2-0-2-2-2-0-2-4-2-0-2-4-6-7-7-7-4-2-2----------------------|
E-0------------0-------0-----------------4-5-5-5-----0----------------------|

pre-chorus:
e---------------------------------------------------------------------------|
B---------------------------------------------------------------------------|
G-xxxxxx-------4-22222-4-------4-22222-4-------------------2222222222222222-|
D-xxxxxx-22222-4-22222-4-22222-4-22222-4--22222222-444444442222222222222222-|
A-xxxxxx-22222-2-00000-2-22222-2-00000-2--22222222-444444440000000000000000-|
E--------00000-----------00000------------00000000-22222222-----------------|

chorus:
e---------------------------------------------------------------------------|
B---------------------------------------------------------------------------|
G----44-----------------4444----------22222222-44444444---------------------|
D-22-44-77-7676----2222-4444-44444444-22222222-44444444---------------------|
A-22-22-77-7676-x2-2222-2222-44444444-00000000-22222222---------------------|
E-00----55-5454----0000------22222222---------------------------------------|

pre-verse:
e---------------------------------------------------------------------------|
B---------------------------------------------------------------------------|
G---4-2-4---4-2-4-----------------------------------------------------------|
D-2-4-2-4-2-4-2-4-2---------------------------------------------------------|
A-2-2-0-2-2-2-0-2-2---------------------------------------------------------|
E-0-------0-------0---------------------------------------------------------|

pre-chorus

chorus

bridge:
e---------------------------------------------------------------------------|
B---------------------------------------------------------------------------|
G----44-66------------------------------------------------------------------|
D-22-44-66-77-9-------------------------------------------------------------|
A-22-22-44-77-9-------------------------------------------------------------|
E-00-------55-7-------------------------------------------------------------|

chorus:
e----------------------------------------------------------------------------|
B----------------------------------------------------------------------------|
G----44-----------------4444----------22222222-44444444----------------------|
D-22-44-77-7676----2222-4444-44444444-22222222-44444444----------------------|
A-22-22-77-7676-x2-2222-2222-44444444-00000000-22222222----------------------|
E-00----55-5454----0000------22222222----------------------------------------|

e---------------------------------------------------------------------------|
B---------------------------------------------------------------------------|
G----44-----------------4444----------2--2-4444444444444444-----------------|
D-22-44-77-7676----2222-4444-44444444-2--2-4444444444444444-----------------|
A-22-22-77-7676-x2-2222-2222-44444444-0--0-2222222222222222-----------------|
E-00----55-5454----0000------22222222---------------------------------------|

outro:
e---------------------------------------------------------------------------|
B---------------------------------------------------------------------------|
G---4-2-4---4-2-4---4-2-4---4-2---------------------------------------------|
D-2-4-2-4-2-4-2-4-2-4-2-4-2-4-2---------------------------------------------|
A-2-2-0-2-2-2-0-2-2-2-0-2-2-2-0---------------------------------------------|
E-0-------0-------0-------0-------------------------------------------------|
11. One day
---------2-0--------------2-0-------------------2-0--------------2-0---------|
---------3----------------3---------------------3----------------3-----------|
-----------------------------------------------------------------------------|
----------------------------------------0---0-0-----0------------------------|
-0/5-5-5-----5--------0-0-----0-----0-2---2------------------0-0-----0-----0-|
---------------3-3--3-----------3-3-------------------3-3--3-----------3-3---|
intro and verse

-----------2-0----------------------------------------0-3-0-----------------|
-----------3------------------------------------------2-3-2-----------------|
------------------------------------------------------2-0-2-----------------|
-0-0--------------------------------0-2-2-2-2-2-2-2-2-2-0-2-----------------|
-----------------0-0--0---------0-2---2-2-2-2-2-2-2-2-0-2-0-----------------|
-----3-5-3-----3--------3-3-3-3-------0-0-0-0-0-0-0-0---3-------------------|
still part of the verse

----------------------------------------------------------------------------|
----------------------------------------------------------------------------|
-7-7-------------7-7--------------7---7-7-7-7-------------------------------|
-7-7-5-5-7-7-5-7-7-7-5-5-7-7-5555-7---7-7-7-7-5-5-5-5-7-7-7-7-7-7-7-7-9-9-9-|
-5-5-5-5-7-7-5-7-5-5-5-5-7-7-5555-5---5-5-5-5-5-5-5-5-7-7-7-7-7-7-7-7-9-9-9-|
-----3-3-5-5-3-5-----3-3-5-5-3333-------------3-3-3-3-5-5-5-5-5-5-5-5-7-7-7-|

-----------------------------------------------------------------------------|
-----------------------------------------------------------------------------|
--------------------7--------------------------------------------------------|
-9-7-7-7-7-5-5--5-7-7--------------------------------------------------------|
-9-7-7-7-7-5-5--5-7-5--------------------------------------------------------|
-7-5-5-5-5-3-3--3-5----------------------------------------------------------|
This is the chorus. After this you play the verse again...
Note : after you play the first two bars again replace the third
bar with the one below
----------------------------------------------------------------------------|
----------------------------------------------------------------------------|
----------------------------------------------------------------------------|
-9-9-9-9--7-7-7-7----2-2----4-4-5-5-5-5-------------------------------------|
-9-9-9-9--7-7-7-7----2-2----4-4-5-5-5-5-------------------------------------|
-7-7-7-7--5-5-5-5----0-0----2-2-3-3-3-3-------------------------------------|
«wont be there to say I'm not around to, One day »

And now into the bridge.
------------------------------------------------------------|
------------------------------------------------------------|
---------------------7-7-7-7--------------------------------|
-9-9-9-9-7-7-5-5-5-5-7-7-7-7-7-7-7-7------------------------| 2 times
-9-9-9-9-7-7-5-5-5-5-5-5-5-5-7-7-7-7------------------------|
-7-7-7-7-5-5-3-3-3-3---------5-5-5-5------------------------|
« Go away, don't look at me... » this part is played by Seb.
Now what I am about to tab out is a little part that Jeff plays
which is in the bridge...you'll know what I am talking about once
you play it
------------------------------------------------------------|
------------------------------------------------------------|
---------------------7-7-9-9-11-11-12-12-14-14-14--14-------|
-9-9-9-9-7-7-5-5-5-5----------------------------------------| 2 times
-9-9-9-9-7-7-5-5-5-5-5-5-7-7-9--9--10-10-12-12-12--12-------|
-7-7-7-7-5-5-3-3-3-3----------------------------------------|
12. Perfect
Dropped Down half a step (Eb-Ab-Db-Gb-Bb-Eb)

------------------------------------------------------------------|
-----------------7-9----------------------------------------------|
-9-8-9-------9-8-8------------------------------------------------|
-9-9-9-7-6---9-7-9---7-6------------------------------------------|
-7-----7--7--7-------7--7-----------------------------------------|
-------5-------------5--------------------------------------------|

that's the intro and most of the verse

------------------------------------------------------------------|
------------------------------------------------------------------|
-9-9-11-11-11-14-14-13-13--13/14\13----16-14-13-9-----------------|
------------------------------------------------------------------|
-7-7-9--9--9--12-12-11-11--11/12\11----14-12-11-7-----------------|
------------------------------------------------------------------|

Play that 3 times then play ....

------------------------------------------------------------------|
------------------------------------------------------------------|
---------2-2-2-2--------------------------------------------------|
-2-2-2-2-2-2-2-2--------------------------------------------------|
-2-2-2-2-0-0-0-0--------------------------------------------------|
-0-0-0-0----------------------------------------------------------|

this is the rythm during the lead riff tabbed above...

-----2-----0---0-------2-0-----------------------------------------|
-----2-----2---0-------2-2-----------------------------------------|
-----2-----2---1-------2-2-----------------------------------------|
---4-----2---2-2-----4---2-----------------------------------------|
-------0-----2-2---------0-----------------------------------------|
-2-----------0-0---2-----------------------------------------------|

The verse is the same as teh intro.  This is the `` and now i try `` part
-0----------------------------------------------------------------|
-0----------------------------------------------------------------|
-1----9-8-----8-9---9-9-8--9---9-8-----8-9---9--------------------|
-2----9-------9-----9-9-9--9---9-------9-----9--------------------|
-2-----------------------------7----------------------------------|
-0--7-----7-9--------------------7-----7-9------------------------|

Chorus

----------------------------------------------------------------------------|
----------------------------------------------------------------------------|
-----------------------------------9-9-9-9-9\----------------------9-9-9-9--|
-9-9-9-9-9-9-9-7-7-7-7-9-9-9-2-2-2-9-9-9-9-9\----------------------9-9-9-9--|
-9-9-9-9-9-9-9-7-7-7-7-9-9-9-2-2-2-7-7-7-7-7\--7-7-7-7-9-9-9-2-2-2-7-7-7-7--|
-7-7-7-7-7-7-7-5-5-5-5-7-7-7-0-0-0-0-0-0-0-0\--5-5-5-5-7-7-7-0-0-0-0-0-0-0--|

This is the bridge...

----------------------------------------------------------------|
----------------------------------------------------------------|
-9-\------------------------------------------------------------|
-9-\--11-11-11-11-11-11-11-11-9-9-9-9-9-9-9-9-7-7-7-7-7-7-7-7---|
-7-\--11-11-11-11-11-11-11-11-9-9-9-9-9-9-9-9-7-7-7-7-7-7-7-7---|
-0-\--9--9--9--9--9--9--9--9--7-7-7-7-7-7-7-7-5-5-5-5-5-5-5-5---|


----------------------------------------------------------------|
----------------------------------------------------------------|
---------4-4-4-4-6-6-6-6-2-2-2-2--------------------------------|
-2-2-2-2-4-4-4-4-6-6-6-6-2-2-2-2--------------------------------|
-2-2-2-2-2-2-2-2-4-4-4-4-0-0-0-0--------------------------------|
-0-0-0-0--------------------------------------------------------|
Now play the corus at the end. it's not very hard...
*Grow up
guitar1) palm mute...
d#|-----------------------------------|--------------------------------------|
A#|-----------------------------------|--------------------------------------|
F#|-----------------------------------|--------------------------------------|(
C#|----2h3-2-----------2h3-2------5~--|----2h-3-----------2h3-2--------------|
G#|-33--------------------------------|-33----------------------------5~-----|
D#|-----------33-3---11--------33-----|----------33-3---11-------33----------|

 (guitar2) palm mute...
d#|-------------------------------------------------------------------------|
A#|-------------------------------------------------------------------------|
F#|-------------------------------------------------------------------------|
C#|---55-5-----------------------------(4x)---------------------------------|
G#|---33-3----55-5----33-3----55-5------------------------------------------|
D#|-----------33-3----11-1----33-3------------------------------------------|


[Pre-Chorus]

 (guitar1)
d#|-----------------------|-------------------------------------------------|
A#|-----------------------|-------------------^^^^^^------------------------|
F#|-----------------------|-----0---------4--/555555---7~-------------------|
C#|----2h3-2------5~------|-----5--5--2---2--/333333---5~-------------------|
G#|-----------------------|-----3--2--0-------------------------------------|
D#|-11---------33---------|-------------------------------------------------|

 (guitar2)
d#|-----------------------|-------------------------------------------------|
A#|-----------------------|-------------------------------------------------|
F#|-----------------------|----5--5--2-------^^^^^^-------------------------|
C#|-----------------------|----5--5--2---2---333333---5~--------------------|
G#|--33-3----55-5---------|----3--2--0---2---333333---5~--------------------|
D#|--11-1----33-3---------|--------------0---111111---3~--------------------|


[Chorus]

 (guitar1) listen carefully for the timing....
d#|-------------------------------------------------------------------------|
A#|-------------------------------------------------------------------------|
F#|---5-55555---/7777---12-\10-\-9-/101010101010-/-121212----7/9\7----------|
C#|---x-xxxxx---/xxxx----x-\-x-\-x-/-x-x-x-x-x-x-/--x-x-x----x/x\x----(2x)--|
G#|---3-33333---/5555---10-\-8-\-7-/-8-8-8-8-8-8-/-101010----5/7\5----------|
D#|-------------------------------------------------------------------------|

d#|-----------------------------------------------|
A#|-----------------------------------------------|
F#|--10101010101010---/-1212121212----7/9\7/9-----|
C#|---x-x-x-x-x-x-x---/--x-x-x-x-x----x/x\x/x-----|
G#|---8-8-8-8-8-8-8---/-1010101010----5/7\5/7-----|
D#|-----------------------------------------------|


 (guitar2)
d#|-------------------------------------------------------------------------|
A#|-------------------------------------------------------------------------|
F#|---5-555555----7-777777--------------------------------------------------|
C#|---5-555555----7-777777----3-555555----5-555555--(2x)--333333---555555---|
G#|---3-333333----5-577777----3-555555----5-555555--------333333---555555---|
D#|---------------------------1-111111----3-333333--------111111---333333---|


(repeat verse)
(repeat Pre-chorus)
(repeat Chorus)

[Bridge1]

 Not sure 'bout "guitar1"...u just figure it out....

 (guitar2)
d#|-------------------------------------------------------------------------|
A#|-------------------------------------------------------------------------|
F#|----------------555-555--------------------------------------------------|
C#|---7~--5~--3~---555-555---(2x)----77--55--3~-----------------------------|
G#|---7~--5~--3~---333-222-----------77--55--3~-----------------------------|
D#|---5~--3~--1~---------------------55--33--1~-----------------------------|

[Bridge2]

   using wah-wah pedal.....
d#|-----------------------|-------------------------------------------------|
A#|-----------------------|-------------------------------------------------|
F#|----5-----7------------|----5----7---------------------------------------|
C#|---5-----7-----3----5--|---5----7------3---5~-----(12121212)-------------|
G#|--3-----5-----3----5---|--3----5------3----5~-----(10101010)-------------|
D#|-------------1----3----|-------------1-----3~----------------------------|

(repeat Chorus 2x) along the chorus,got guitar solo..u just simply figure it out..

[Outro]

    (guitar2)       (guitar1)
d#|-------------|---------------|
A#|-------------|---------------|
F#|---55-55-----|---55-55-------|
C#|---55-55-----|---xx-xx-------|
G#|---33-33-----|---33-33-------|
D#|-------------|---------------|
* Christmas List
Guitar 1
e|---1---1---4---4---2---4-----|
B|-----2---2---2---2---2---2---|
G|-----------------------------|
D|-----------------------------|
A|-----------------------------|
E|-----------------------------|

and then....

Guitar 1
e|1---1---1---1---4---4---2--4-|
B|--2---2---2---2---2---2------|
G|-----------------------------| 2x
D|-----------------------------|
A|-----------------------------|
E|-----------------------------|

and then...

Guitar 1
e|1---1---1---1---4---4-----2-2---4-4-|
B|--2---2---2---2---2---2---2-2---2-2-|
G|------------------------------------|
D|------------------------------------|
A|------------------------------------|
E|------------------------------------|

Guitar 2(at the ending of the last time the intro is played)
e|-----------------------------------|
B|-----------------------------------|
G|-----------------------------------|
D|-----------------------------------|
A|---4-4-x-6-6-----------------------|
E|---2-2-x-4-4-----------------------|

then the first guitar changes to this...(this is when the 2nd guitar joins)

Guitar 1
e|1---1---4---4---2---4---1---2---|
B|--2---2---2---2---2---2---2---2-|
G|--------------------------------| 2x
D|--------------------------------|
A|--------------------------------|
E|--------------------------------|

(on the 2nd time do this)

Guitar 1
e|1---1---4---4---2--4--9-----1------|
B|--2---2---2---2----------7---------|
G|-----------------------------------|
D|-----------------------------------|
A|-----------------------------------|
E|-----------------------------------|

Guitar 2

e|-----------------------------------|
B|-----------------------------------|
G|-----------------------------------|
D|--6-6--x--6-6--x-------------------| 2x
A|--4-4--x--4-4--x--4-4-4-4--6-6-6-6-|
E|---------------x--2-2-2-2--4-4-4-4-|

Guitar 2 (ends like this before singing)
e|------------------4-4-4-4-4-4------|
B|------------------2-2-2-2-2-2------|
G|-----------------------------------|
D|--6 ~~ -6-6 ~ ---------------------|
A|--4 ~~ -4-4 ~ ---------------------|
E|-----------------------------------|

(singing starts)

...i want a lifetime supply of........
Guitar 1
e|---------------------------------------------------|
B|---------------------------------------------------|
G|---------------------------------------------------|
D|--6-6-6-3-3-3-4-4-4-3-3-3--6-6-6-3-3-3-4-4-4-3-3-3-|
A|---------------------------------------------------|
E|---------------------------------------------------|

e|----------------------------------------------------|
B|----------------------------------------------------|
G|----------------------------------------------------|
D|----------------------------------------------------|
A|--3-3-3-4-4-4-6-6-6-6-6-6---3-3-3-4-4-4-6-6-6-6-6-6-|
E|----------------------------------------------------|

Guitar 1&2
e|----------------------------------------------------------|
B|----------------------------------------------------------|
G|----------------------------------------------------------|
D|----------------------------------------------------------|
A|-8-8-8-8---6-6-6-6---4-4-4-4-4-4-4----4-4-4-4-4-4-4-4-6---|
E|-6-6-6-6---4-4-4-4---2-2-2-2-2-2-2----2-2-2-2-2-2-2-2-4---|
   * * *     * * *     * * * * * *

Chorus

Guitar 2
e|-----------------------------------------------------------------------|
B|-----------------------------------------------------------------------|
G|-----------------------------------------------------------------------|
D|-6-6-6-6--------------------6-6-6-6------------------------------------|
A|-4-4-4-4--6-6-6-6--4-4-4-4--4-4-4-4--4-4-4-4--4-4-4-4--6-6-6-6-6-6-6-6-|
E|----------4-4-4-4--2-2-2-2-----------2-2-2-2--1-1-1-1--4-4-4-4-4-4-4-4-|

e|---------------------------------------------------------|
B|---------------------------------------------------------|
G|---------------------------------------------------------|
D|-6-6-6-6------------------6-6-6-6-----------6~~ ---------|
A|-4-4-4-4-6-6-6-6--4-4-4-4-4-4-4-4--4~ -6~~ -4~~ ---------|
E|---------4-4-4-4--2-2-2-2----------2~ -4~~ --------------|

...cuz now its christmas.....

Guitar 1
e|1---1---4---4---2---4---1---2---|
B|--2---2---2---2---2---2---2---2-|
G|--------------------------------|
D|--------------------------------|
A|--------------------------------|
E|--------------------------------|

e|1---1---4---4---2---4----9------|
B|--2---2---2---2---2---2-----7---|
G|--------------------------------|
D|--------------------------------|
A|--------------------------------|
E|--------------------------------|

Guitar 2
e|-----------------------------------|
B|-----------------------------------|
G|-----------------------------------|
D|--6-6--x--6-6--x-------------------| 2x
A|--4-4--x--4-4--x--4-4-4-4--6-6-6-6-|
E|---------------x--2-2-2-2--4-4-4-4-|

...i want a girl in my bed....
Guitar 1
e|---------------------------------------------------|
B|---------------------------------------------------|
G|---------------------------------------------------|
D|--6-6-6-3-3-3-4-4-4-3-3-3--6-6-6-3-3-3-4-4-4-3-3-3-|
A|---------------------------------------------------|
E|---------------------------------------------------|

e|----------------------------------------------------|
B|----------------------------------------------------|
G|----------------------------------------------------|
D|----------------------------------------------------|
A|--3-3-3-4-4-4-6-6-6-6-6-6---3-3-3-4-4-4-6-6-6-6-6-6-|
E|----------------------------------------------------|

Guitar 1&2
e|----------------------------------------------------------|
B|----------------------------------------------------------|
G|----------------------------------------------------------|
D|----------------------------------------------------------|
A|-8-8-8-8---6-6-6-6---4-4-4-4-4-4-4----4-4-4-4-4-4-4-4-6---|
E|-6-6-6-6---4-4-4-4---2-2-2-2-2-2-2----2-2-2-2-2-2-2-2-4---|
   * * *     * * *     * * * * * *

Chorus

Guitar 2
e|-----------------------------------------------------------------------|
B|-----------------------------------------------------------------------|
G|-----------------------------------------------------------------------|
D|-6-6-6-6--------------------6-6-6-6------------------------------------|
A|-4-4-4-4--6-6-6-6--4-4-4-4--4-4-4-4--4-4-4-4--4-4-4-4--6-6-6-6-6-6-6-6-|
E|----------4-4-4-4--2-2-2-2-----------2-2-2-2--1-1-1-1--4-4-4-4-4-4-4-4-|

e|---------------------------------------------------------|
B|---------------------------------------------------------|
G|---------------------------------------------------------|
D|-6-6-6-6------------------6-6-6-6-----------6~~ ---------|
A|-4-4-4-4-6-6-6-6--4-4-4-4-4-4-4-4--4~ -6~~ -4~~ ---------|
E|---------4-4-4-4--2-2-2-2----------2~ -4~~ --------------|

...cuz now its christmas.....

Guitar 1
e|1---1---4---4---2---4---1---2---|
B|--2---2---2---2---2---2---2---2-|
G|--------------------------------|
D|--------------------------------|
A|--------------------------------|
E|--------------------------------|

e|1---1---4---4---2---4----9------|
B|--2---2---2---2---2---2-----7---|
G|--------------------------------|
D|--------------------------------|
A|--------------------------------|
E|--------------------------------|

Guitar 2
e|-----------------------------------|
B|-----------------------------------|
G|-----------------------------------|
D|--6-6--x--6-6--x-------------------| 2x
A|--4-4--x--4-4--x--4-4-4-4--6-6-6-6-|
E|---------------x--2-2-2-2--4-4-4-4-|

Guitar 1&2
e|-----------------------------------|
B|-----------------------------------|
G|-----------------------------------|
D|--6~ -------6~ --------------------|
A|--4~ 4~ 6~ -4~ -4~ ----------------|
E|-----2~ 4~ -----6~ ----------------|

Guitar 1&2
e|------------------------------------------------------------|
B|------------------------------------------------------------|
G|------------------------------------------------------------|
D|--6-6-6-6-6-6-6-6-------------------------------------------|
A|--4-4-4-4-4-4-4-4--4-4-4-4-4-4-4-4--6-6-6-6-6-6-6-6---------|
E|-------------------2-2-2-2-2-2-2-2--4-4-4-4-4-4-4-4---------|

e|------------------------------------------------------------|
B|------------------------------------------------------------|
G|------------------------------------------------------------|
D|--6-6-6-6---------------------------------------------------|
A|--4-4-4-4--6-6-6-6--4~ -------------------------------------|
E|-----------4-4-4-4--2~ -------------------------------------|

....i want everything now.....

e|------------------------------------------------------------|
B|------------------------------------------------------------|
G|------------------------------------------------------------|
D|------------------------------------------------------------|
A|----4-4-4-4-4-4-4-4-4-4--6-6-6-6-6-6-6-6-6-6----------------|
E|----2-2-2-2-2-2-2-2-2-2--4-4-4-4-4-4-4-4-4-4----------------|
      * * * * * * * * * *  * * * * * * * *

Chorus

Guitar 2
e|-----------------------------------------------------------------------|
B|-----------------------------------------------------------------------|
G|-----------------------------------------------------------------------|
D|-6-6-6-6--------------------6-6-6-6------------------------------------|
A|-4-4-4-4--6-6-6-6--4-4-4-4--4-4-4-4--4-4-4-4--4-4-4-4--6-6-6-6-6-6-6-6-|
E|----------4-4-4-4--2-2-2-2-----------2-2-2-2--1-1-1-1--4-4-4-4-4-4-4-4-|

e|---------------------------------------------------------|
B|---------------------------------------------------------|
G|---------------------------------------------------------|
D|-6-6-6-6------------------6-6-6-6-----------6~~ ---------|
A|-4-4-4-4-6-6-6-6--4-4-4-4-4-4-4-4--4~ -6~~ -4~~ ---------|
E|---------4-4-4-4--2-2-2-2----------2~ -4~~ --------------|

...cuz now its christmas.....

Guitar 1
e|1---1---4---4---2---4---1---2---|
B|--2---2---2---2---2---2---2---2-|
G|--------------------------------|
D|--------------------------------|
A|--------------------------------|
E|--------------------------------|

e|1---1---4---4---2---4----9------|
B|--2---2---2---2---2---2-----7---|
G|--------------------------------|
D|--------------------------------|
A|--------------------------------|
E|--------------------------------|

Guitar 2
e|-----------------------------------|
B|-----------------------------------|
G|-----------------------------------|
D|--6-6--x--6-6--x-------------------| 2x
A|--4-4--x--4-4--x--4-4-4-4--6-6-6-6-|
E|---------------x--2-2-2-2--4-4-4-4-|

.....i want a million gifts thats right......

Guitar 2
e|----------------------------------------|
B|----------------------------------------|
G|----------------------------------------|
D|----------------------------------------| x2
A|----4-4-4-4-4-4-4-4----6-6-6-6-6-6-6-6--|
E|----2-2-2-2-2-2-2-2----4-4-4-4-4-4-4-4--|

e|----------------------------------------|
B|----------------------------------------|
G|----------------------------------------|
D|----------------------------------------|
A|----4-4-4-4-4-4-4-4----6~ --------------|
E|----2-2-2-2-2-2-2-2----4~ --------------|
      * * * * * * * *
Guitar 1(play this at the same time as the riff above)
e|----------------------------------------|
B|----------------------------------------|
G|--9--11-13-14---------------------------|
D|--x--x--x--x----------------------------|
A|--7--9--11-12---------------------------|
E|----------------------------------------|

...cuz now its christmas.....

Guitar 1
e|1---1---4---4---2---4---1---2---|
B|--2---2---2---2---2---2---2---2-|
G|--------------------------------| x6
D|--------------------------------|
A|--------------------------------|
E|--------------------------------|

(on 6 time do this)
e|1---1---4---4---2---4----9------|
B|--2---2---2---2---2---2-----7---|
G|--------------------------------|
D|--------------------------------|
A|--------------------------------|
E|--------------------------------|

Guitar 2
e|-----------------------------------|
B|-----------------------------------|
G|-----------------------------------|
D|--6-6--x--6-6--x-------------------| 2x
A|--4-4--x--4-4--x--4-4-4-4--6-6-6-6-|
E|---------------x--2-2-2-2--4-4-4-4-|
*One By One
INTRO
e|--------------------------------------------------------------------------|
B|--------------------------------------------------------------------------|
G|--------------------------------------------------------------------------|
D|--6-8-10-11-10--------------6-8-10-11-10-11-10---11-10---11-10------------|
A|---------------11--(x2)------------------------11------11-----11----------|
E|--------------------------------------------------------------------------|

Verse
e|--------------------------------------------------------------------------|
B|--------------------------------------------------------------------------|
G|--------------------------------------------------------------------------|
D|--6---------------6-------6--------6-----(keep picking chord way thru)----|
A|--6-------------6---6---6----6---6---6------------------------------------|
E|--4-----------4-------4--------4-------4----------------------------------|
 (let ring)

pre-chorus ..... and they used to say...
e|--------------------------------------------------------------------------|
B|--------------------------------------------------------------------------|
G|--66----------6666-8888-------66---------6666---8-8-----------------------|
D|--66-x-66-x---6666-8888-------66-x-66-x--6666---8-8-----------------------|
A|--44-x-66-x---4444-6666-------44-x-66-x--4444---6-6-----------------------|
E|-----x-44-x----------------------x-44-x-----------------------------------|
                                              ...change it!!
Chorus
e|--------------------------------------------------------------------------|
B|--------------------------------------------------------------------------|
G|-------6666------6666-----------------------------------------------------|
D|--6666-4444-8888-6666----(x2)---------------------------------------------|
A|--6666-4444-8888-4444-----------------------------------------------------|
E|--4444------6666----------------------------------------------------------|

solo thing...
e|---------------------------------------------------------------------------|
B|---------------------------------------------------------------------------|
G|--10-8-6-5------------10-8-12-5--------------------------------------------|
D|-----------6---(x3)-------------6------------------------------------------|
A|---------------------------------------------------------------------------|
E|---------------------------------------------------------------------------|

* These are the bonus tracks depending on which album you have
comments
print report bad tab
6 comments total. Showing first comments.
0 reply
w00ts!te wrote on June 15 2005, 12:00 am

Intro on Worst Day Ever Blows Ass

0 reply
Xiang wrote on November 10 2005, 06:09 pm

.

0 reply
Grinder41 wrote on October 22 2007, 01:59 am

Meh ok, and is I won't be there, half step down or what?

I want to post or [tab]
guest
You may want to rate the tab now too:
select rating
Please do not post tabs as comments. Select "correction" instead!