Oops, an error
Loading. Please wait.

One Tab

ver2
ver2

Whole song

Interactive

More versions @911Tabs.com
1,668 views 3 this week
no commentswrite comment
1 2 3 4 5
accurate
x 2
add to favorites launch autoscroll
font size
0
reset
Autoscroll
+/-
esc
set tempo
stop
WARNING: You are trying to view
                                    content from Ultimate-Guitar.com
                                    in an unauthorized application,
                                    which is prohibited.

                                    Please use an official Ultimate
                                    Guitar Tabs application for iPhone,
                                    iPad or Android to access legitimate
                                    chords, guitar, bass, and drum tabs
                                    from Ultimate-Guitar.com database.

                                    Type "ultimate guitar tabs" in Apple
                                    App Store's or Android Market's
                                    search to find the application.
Hey everyone!  I heard this song and really liked it and with some help I was able to
tab this out so I hope you like it!  I havn't figured out the lead part yet but I have
lead and backup lead.  Note that the srtumming isn't ligned up with the words beneath
it.  It's played with standared tuning.

                               Intro
Guitar 1
e-----------------------------------|
B-----------------------------------|
G-----------------------------------|       x2
D--666-----666-----444-----444--6---|
A--444-----666-----444-----444--6---|
E--444-----444-----222-----222--4---|
                                       
Guitar 2                              
e-----------------------------------|
B-----------------------------------|
G-----------------------------------|       x2
D--666666666666666644444444444446---|
A--444444446666666644444444444446---|
E--444444444444444422222222222224---|
We are the lost
The ones forgotten
And this time
The future is ours
It's in our hands

                                  Verse 1

Guitar 1 (Guitar 2 doesn't play)

e--------------------------|
B--------------------------|
G--------------------------|                       X2
D--666---666---444---444---|
A--444---444---444---444---|
E--444---444---222---222---|
We're the tear in you eyes
We're the blood in you veins
We're the beat of your heart
We're the sweat on your face
We're the ones that you chase
We're the promise that you made

                                   Pre-Chorus
Guirar 1 (Guitar 2 still doesnt play)

e-------------------------------|
B-------------------------------|
G-------------------------------|
D---666---666---444---444---6-6-|
A---444---666---444---444---6-4-|
E---444---444---222---222---4-4-|

We're the voice in your head
We're the lies that you said
We're the kids that you pushed away
We are...

                                   Chorus

Guirat 1 (2nd time through don't play the las chord)
e------------------------------------|
B------------------------------------|
G------------------------------------|            x2
D---666-----666-----444-----444----6-|
A---444-----666-----222-----222----4-|
E---444-----444-----222-----222----4-|

Guitar 2 (2nd time through don't play the last chord)
e------------------------------------|
B------------------------------------|
G------------------------------------|            x2
D---66666666666666664444444444444-6--|
A---44444444666666664444444444444-6--|
E---44444444444444442222222222222-4--|

We are the lost, the ones forgotten
And this time
The future is ours
It's in our hands
We are...
One
                                                Post-Chorus
Guitars 1&2
e--------------------------|
B--------------------------|
G--------------------------|
D---666---666---444---444--|
A---444---444---444---444--|
E---444---444---222---222--|


                                                Verse 2
Guitar 1 plays the same as Verse 1.

Guirar 2 plays the PALM MUTED.

e-------------------------------------|
B-------------------------------------|
G-------------------------------------|             x2
D---66666666666666664444444444444444--|
A---44444444444444444444444444444444--|
E---44444444444444442222222222222222--|

We're the pride of your lives
We're the light shining deep in your eyes
We're the choice that you made
We're the smile on your face when you sleep at night


                                              Pre-Chorus

Both guitars are the same as the first but with these lyrics

We're the best thing you had
but you left us behind
We're the kids that you pushed away

                                        Chorus & Post-Chorus

Everything is the same

                                              Bridge
e---------------------------------------------------------|
B---------------------------------------------------------|
G---------------------------------------------------------|
D---444---444---666---666---666---666---4444444444444444--|
A---444---444---444---444---444---444---4444444444444444--|
E---222---222---444---444---444---444---2222222222222222--|

We're the pain that you feel
We're the scars that don't heal
We're the tear in you eyes
We're the reason you cry
We're the voice in your head
We're the voice in you head
We're the lies that you said
We're the best thing you had
but you pushed us away

                                            Chorus
The guitars are the same and you play it 2x sing this.

We are the lost the ones forgotten
And this time
The future is ours 
It's in our hands
We are...
We are the lost the ones forgotten
And we've got nothin' to lose
Together we stand up tall
We are...
One
comments
We did not receive enough feedback on this tab! Please rate:
print report bad tab
1 2 3 4 5
I want to post or [tab]
guest
You may want to rate the tab now too:
select rating
Please do not post tabs as comments. Select "correction" instead!