Oops, an error
Loading. Please wait.

Promise Tab

ver2
ver2

Solo

Whole song

Interactive

More versions @911Tabs.com
599 views 1 this week
no commentswrite comment
1 2 3 4 5
please rate
Autoscroll
+/-
esc
set tempo
stop
Difficulty
Tuning
advanced
D G C F A D
WARNING: You are trying to view
                                    content from Ultimate-Guitar.com
                                    in an unauthorized application,
                                    which is prohibited.

                                    Please use an official Ultimate
                                    Guitar Tabs application for iPhone,
                                    iPad or Android to access legitimate
                                    chords, guitar, bass, and drum tabs
                                    from Ultimate-Guitar.com database.

                                    Type "ultimate guitar tabs" in Apple
                                    App Store's or Android Market's
                                    search to find the application.
Simple plan - Promise

Tab by Omar Arbsù Hernandez
omar_arbesu@hotmail.com

Intro part 1 (x2)
Gt.1                                          Gt.2
|--------------------------------------------|------------------------|
|--------------------------------------------|------------------------|
|---6-66-666-6-66-666-6-66-666---------------|-1p3-1p3----1p3-1p3-----|
|---x-xx-xxx-x-xx-xxx-x-xx-xxx-6-6-x-6-6-----|---------4----------4---|
|---4-44-444-4-44-444-4-44-444-6-6-x-6-6-----|------------------------|
|------------------------------6-6-x-6-6-----|------------------------|

Intro part 2 
Gt.1 x2                        Gt.2
|-----------------------------|---------------------------------------|
|-----------------------------|---------------------------------------|
|---6666666666----------------|---------------------------------------|
|---6666666666-44444-66x-66x--|----1-1p3----1-1p3----1-1p3--1p3—1p3---|
|---4444444444-44444-66x-66x--|-44-------44-------44------------------|
|--------------44444-66x-66x--|---------------------------------------|

Gt.2
|---------------------------------------------------------------------|
|---------------------------------------------------------------------|
|---------------------------------------------------------------------|
|----1-1p3----1-1p3----1-1p3—--1-1-1-3-1------------------------------|
|-44-------44-------44-------------------4----------------------------|
|---------------------------------------------------------------------|

Gt.1                               
|---------------------------------------------------------------------|
|---------------------------------------------------------------------|
|---------------------------------------------------------------------|
|------------------------------6-6-6-6-6-6----------------------------|
|------------------------------6-6-6-6-6-6----------------------------|
|------------------------------6-6-6-6-6-6----------------------------|

Verse 1 (x2)
Gt.1                                          Gt.2
|--------------------------------------------|------------------------|
|--------------------------------------------|------------------------|
|---6-66-666-6-66-666-6-66-666---------------|-1p3-1p3----1p3-1p3-----|
|---x-xx-xxx-x-xx-xxx-x-xx-xxx-6-6-x-6-6-----|---------4----------4---|
|---4-44-444-4-44-444-4-44-444-6-6-x-6-6-----|------------------------|
|------------------------------6-6-x-6-6-----|------------------------|

Prechorus
Guitars 1 and 2
|------------------------------------------------------------------------|
|------------------------------------------------------------------------|
|---66666-------66666------------66666-----------------------------------|
|---66666-44444-66666-66666------66666-66666-4~--6-6-6-666---------------|
|---44444-44444-44444-66666------44444-66666-4~--6-6-6-666---------------|
|---------44444-------66666------------66666-4~--6-6-6-666---------------|

Chorus 
Gt.1                                    Gt.2
|--------------------------------------|-------------------------------------|
|--------------------------------------|-------------------------------------|
|-6666-6666----------------------------|6666-6666-6666-6666------------------|
|-6666-6666-6666-6666-11x11x-44-44-6-6-|6666-6666-6666-6666-11x11--44-44-6-6-|
|-4444-4444-6666-6666-11x11x-44-44-6-6-|4444-4444-6666-6666-11x11--44-44-6-6-|
|-----------6666-6666-11x11x-44-44-6-6-|----------6666-6666-11x11--44-44-6-6-|



Gt.1                                    Gt.2
|--------------------------------------|-------------------------------------|
|--------------------------------------|-------------------------------------|
|-6666-6666----------------------------|6666-6666-8888-8888-8888-------------|
|-6666-6666-6666-6666-11x11x-44-44-6-6-|6666-6666-xxxx-xxxx-xxxx---44-44-6-6-|
|-4444-4444-6666-6666-11x11x-44-44-6-6-|4444-4444-6666-6666-6666---44-44-6-6-|
|-----------6666-6666-11x11x-44-44-6-6-|---------------------------44-44-6-6-|

Intro part 2 
Gt.1 x2                        Gt.2
|-----------------------------|---------------------------------------|
|-----------------------------|---------------------------------------|
|---6666666666----------------|---------------------------------------|
|---6666666666-44444-66x-66x--|----1-1p3----1-1p3----1-1p3--1p3—1p3---|
|---4444444444-44444-66x-66x--|-44-------44-------44------------------|
|--------------44444-66x-66x--|---------------------------------------|

Gt.2
|---------------------------------------------------------------------|
|---------------------------------------------------------------------|
|---------------------------------------------------------------------|
|----1-1p3----1-1p3----1-1p3—--1-1-1-3-1------------------------------|
|-44-------44-------44-------------------4----------------------------|
|---------------------------------------------------------------------|

Gt.1                               
|---------------------------------------------------------------------|
|---------------------------------------------------------------------|
|---------------------------------------------------------------------|
|------------------------------6-6-6-6-6-6----------------------------|
|------------------------------6-6-6-6-6-6----------------------------|
|------------------------------6-6-6-6-6-6----------------------------|

Verse 2 (x2)
Gt.1                            Gt.2
|------------------------------|--------------------------------------|
|------------------------------|--------------------------------------|
|--6xx6-66x6-xx6xx6------------|--------------------------------------|
|--6xx6-66x6-xx6xx6-6-6-x-6-6--|--1p3-1p3----1p3-1p3------------------|
|--4xx4-44x4-xx4xx4-6-6-x-6-6--|--------------------------------------|
|-------------------6-6-x-6-6--|----------4----------4----------------|

Prechorus
Guitars 1 and 2
|-----------------------------------------------------------------------|
|-----------------------------------------------------------------------|
|---66666-------66666------------66666----------------------------------|
|---66666-44444-66666-66666------66666-66666-4~--6-6-6-666--------------|
|---44444-44444-44444-66666------44444-66666-4~--6-6-6-666--------------|
|---------44444-------66666------------66666-4~--6-6-6-666--------------|

Chorus 
Gt.1                                    Gt.2
|--------------------------------------|-------------------------------------|
|--------------------------------------|-------------------------------------|
|-6666-6666----------------------------|6666-6666-6666-6666------------------|
|-6666-6666-6666-6666-11x11x-44-44-6-6-|6666-6666-6666-6666-11x11--44-44-6-6-|
|-4444-4444-6666-6666-11x11x-44-44-6-6-|4444-4444-6666-6666-11x11--44-44-6-6-|
|-----------6666-6666-11x11x-44-44-6-6-|----------6666-6666-11x11--44-44-6-6-|
Gt.1                                    Gt.2
|--------------------------------------|-------------------------------------|
|--------------------------------------|-------------------------------------|
|-6666-6666----------------------------|6666-6666-8888-8888-8888-----------6-|
|-6666-6666-6666-6666-11x11x-44-44-6-6-|6666-6666-xxxx-xxxx-xxxx-44-44-6-6-6-|
|-4444-4444-6666-6666-11x11x-44-44-6-6-|4444-4444-6666-6666-6666-44-44-6-6-4-|
|-----------6666-6666-11x11x-44-44-6-6-|-------------------------44-44-6-6---|

Bridge
Gt.1
|----------------------------------------------------------------------------|
|----------------------------------------------------------------------------|
|---6~--6~--6~-6~-6~-6~-----------------6-66666------------------------------|
|---6~--6~--6~-6~-6~-6~-----------------6-66666-4-44444-6-66-66-6------------|
|---4~--4~--4~-4~-4~-4~-----------------4-44444-4-44444-6-66-66-6------------|
|-----------------------------------------------4-44444-6-66-66-6------------|
                                        Pm.....   .....   .. ..
Gt.2                                                            
|-9-8-------9-8-----9-11-8-9---9-8-------------------------------------------|
|-----9-7-------9-7----------------9-7---------------------------------------|
|---------------------------------------6-66666------------------------------|
|---------------------------------------6-66666-4-44444-6-66-66-6------------|
|---------------------------------------4-44444-4-44444-6-66-66-6------------|
|-----------------------------------------------4-44444-6-66-66-6------------|
                                        Pm.....   .....   .. ..
Solo
Gt. 1 x2
|---------------------------------------------------|------------------------|
|---------------------------------------------------|------------------------|
|----------------666666-----------------------------|------------------------|
|---888888-44444-666666-66666-888888-666666-444444--|-66---------------------|
|---888888-44444-444444-66666-888888-666666-444444--|-66-(2 part)------------|
|---888888-44444--------66666-888888-666666-444444--|-66---------------------|

Gt. 2
|--------------------------------------6-------------------------------------|
|---6-6--6-------------------------------9--6-9------------------------------|
|----------8-6---6---------6-8-6-8—-8b---------------------------------------|
|--------------8---8---6-8---------------------------------------------------|
|--------------------8-------------------------------------------------------|
|----------------------------------------------------------------------------|

|-----------------------------------------6---6-9-6-9------------------------|
|---------------------------------6-9-6-9---9--------------------------------|
|---------------------6---6-8-6-8--------------------------------------------|
|---------6---6-8-6-8---8----------------------------------------------------|
|---8-6-8---8----------------------------------------------------------------|
|----------------------------------------------------------------------------|

|---11b-11b-11r-9p11h9--11-14-13-11------------------------------------------|
|-----------------------------------14-11------------------------------------|
|----------------------------------------------------------------------------|
|----------------------------------------------------------------------------|
|----------------------------------------------------------------------------|
|----------------------------------------------------------------------------|

|-----------------------6-4---4---8-9-8-6-4----------------------------------|
|--9-6---9-6---9---9--6-----6---6-----------6--------------------------------|
|------6-----6---6-----------------------------------------------------------|
|----------------------------------------------------------------------------|
|----------------------------------------------------------------------------|
|----------------------------------------------------------------------------|

|--------------8---8-9-8---9-9---------------------------8---8-99------------|
|--6---6-9-6-9---9-------9----------------------6--6-99-------9---14b-14b----|
|----8---------------------------666666555555-----8--------------------------|
|--------------------------------xxxxxxxxxxxx--------------------------------|
|--------------------------------444444333333--------------------------------|
|----------------------------------------------------------------------------|






Gt.1 and 2
|----------------------------------------------------------------------------|
|----------------------------------------------------------------------------|
|-----------8888-11-11-11-11---10-10-10-10-10-10-----------------------------|
|--66—-1-1--xxxx-x--x--x--x---x-x-x-x-x--x--x--444444-666666-----------------|
|--66—-1-1--6666-9--9--9--9---8-8-8-8-8--8--8--444444-666666-----------------|
|--66-—1-1-------------------------------------444444-666666-----------------|

Chorus 
Gt.1                                    Gt.2
|--------------------------------------|-------------------------------------|
|--------------------------------------|-------------------------------------|
|-6666-6666----------------------------|6666-6666-6666-6666------------------|
|-6666-6666-6666-6666-11x11x-44-44-6-6-|6666-6666-6666-6666-11x11--44-44-6-6-|
|-4444-4444-6666-6666-11x11x-44-44-6-6-|4444-4444-6666-6666-11x11--44-44-6-6-|
|-----------6666-6666-11x11x-44-44-6-6-|----------6666-6666-11x11--44-44-6-6-|

New Chorus and end
Gt.1                        Gt.2
|--------------------------|-------------------------------------------------|
|--------------------------|-------------------------------------------------|
|-6666-6666----------------|-------------------------------------------------|
|-6666-6666-4444-666666666-|------1p3----1p3----1p3---1p3----1p3----1p3------|
|-4444-4444-4444-666666666-|---44-----44-------------------------------------|
|-----------4444-666666666-|------------------66----66----66-----66----------|

Gt.2
|--------------------------|
|--------------------------|
|--1p3-1p3-1p3-1p3-66------|
|------------------66------|
|------------------44------|
|--------------------------|
comments
We did not receive enough feedback on this tab! Please rate:
print report bad tab
1 2 3 4 5
I want to post or [tab]
guest
You may want to rate the tab now too:
select rating
Please do not post tabs as comments. Select "correction" instead!