Oops, an error
Loading. Please wait.

Save You Tab

ver5
ver5

Solo

Whole song

More versions @911Tabs.com
2,479 views 1 this week
no commentswrite comment
1 2 3 4 5
accurate
x 1
Autoscroll
+/-
esc
set tempo
stop
Contributor
Tuning
D# G# C# F# A# D#
WARNING: You are trying to view
                                    content from Ultimate-Guitar.com
                                    in an unauthorized application,
                                    which is prohibited.

                                    Please use an official Ultimate
                                    Guitar Tabs application for iPhone,
                                    iPad or Android to access legitimate
                                    chords, guitar, bass, and drum tabs
                                    from Ultimate-Guitar.com database.

                                    Type "ultimate guitar tabs" in Apple
                                    App Store's or Android Market's
                                    search to find the application.
----------------------
Save You ~ Simple Plan
----------------------
Album: Simple Plan   (2008)

Tabbed By: RussCool
(I know, pretty lame name)

Tuning: Half-Step Down

Main Chords Used:
C#m
G#sus2
E
B


INTRO
(Piano)


VERSE 1

GUITAR 1
          C#m    G#sus2        E      B
Eb|--------------------|--------------------|
Bb|-------5------5-----|-------5------7-----|
Gb|--------------------|-----1--------------|
Db|-----6------2-------|---2--------4-------|
Ab|---4------0---------|----------2---------|
Eb|--------------------|--------------------|

GUITAR 2 
            C#m     G#sus2         E       B
Eb|----------------------|----------------------|
Bb|---5-5-5-5-0-0-0-0----|---0-0-0-0-0-0-0-0----|
Gb|---6-6-6-6-2-2-2-2----|---1-1-1-1-4-4-4-4----|
Db|---6-6-6-6-2-2-2-2----|---2-2-2-2-4-4-4-4----|
Ab|---4-4-4-4-0-0-0-0----|---2-2-2-2-2-2-2-2----|
Eb|----------------------|---0-0-0-0------------|

GUITAR 1
          C#m    G#sus2        E      B
Eb|--------------------|--------------------|
Bb|-------5------5-----|-------5------7-----|
Gb|--------------------|-----1--------------|
Db|-----6------2-------|---2--------4-------|
Ab|---4------0---------|----------2---------|
Eb|--------------------|--------------------|

GUITAR 2 
            C#m     G#sus2         E       B
Eb|----------------------|----------------------|
Bb|---5-5-5-5-0-0-0-0----|---0-0-0-0-0-0-0-0----|
Gb|---6-6-6-6-2-2-2-2----|---1-1-1-1-4-4-4-4----|
Db|---6-6-6-6-2-2-2-2----|---2-2-2-2-4-4-4-4----|
Ab|---4-4-4-4-0-0-0-0----|---2-2-2-2-2-2-2-2----|
Eb|----------------------|---0-0-0-0------------|

GUITAR 1
          C#m    G#sus2        E      B
Eb|--------------------|--------------------|
Bb|-------5------5-----|-------5------7-----|
Gb|--------------------|-----1--------------|
Db|-----6------2-------|---2--------4-------|
Ab|---4------0---------|----------2---------|
Eb|--------------------|--------------------|

GUITAR 2 
            C#m     G#sus2         E       B
Eb|----------------------|----------------------|
Bb|---5-5-5-5-0-0-0-0----|---0-0-0-0-0-0-0-0----|
Gb|---6-6-6-6-2-2-2-2----|---1-1-1-1-4-4-4-4----|
Db|---6-6-6-6-2-2-2-2----|---2-2-2-2-4-4-4-4----|
Ab|---4-4-4-4-0-0-0-0----|---2-2-2-2-2-2-2-2----|
Eb|----------------------|---0-0-0-0------------|


PRE-CHORUS 1

GUITAR 1 (No Guitar 2)
      C#m         E
Eb|-----------|-----------|
Bb|---5-------|---0-------|
Gb|---6-------|---1-------|
Db|---6-------|---2-------|
Ab|---4-------|---2-------|
Eb|-----------|---0-------|

      C#m         E
Eb|-----------|-----------|
Bb|---5-------|---0-------|
Gb|---6-------|---1-------|
Db|---6-------|---2-------|
Ab|---4-------|---2-------|
Eb|-----------|---0-------|


CHORUS 1

BOTH GUITARS
                    E                      B                      G#sus2                 B
Eb|----------------------|----------------------|----------------------|----------------------|
Bb|----------------------|----------------------|----------------------|----------------------|
Gb|----------------------|---4-4-4-4-4-4-4-4----|---2-2-2-2-2-2-2-2----|---4-4-4-4-4-4-4-4----|
Db|---2-2-2-2-2-2-2-2----|---4-4-4-4-4-4-4-4----|---2-2-2-2-2-2-2-2----|---4-4-4-4-4-4-4-4----|
Ab|---2-2-2-2-2-2-2-2----|---2-2-2-2-2-2-2-2----|---0-0-0-0-0-0-0-0----|---2-2-2-2-2-2-2-2----|
Eb|---0-0-0-0-0-0-0-0----|----------------------|----------------------|----------------------|

                    E                      B                      G#sus2                 B
Eb|----------------------|----------------------|----------------------|----------------------|
Bb|----------------------|----------------------|----------------------|----------------------|
Gb|----------------------|---4-4-4-4-4-4-4-4----|---2-2-2-2-2-2-2-2----|---4-4-4-4-4-4-4-4----|
Db|---2-2-2-2-2-2-2-2----|---4-4-4-4-4-4-4-4----|---2-2-2-2-2-2-2-2----|---4-4-4-4-4-4-4-4----|
Ab|---2-2-2-2-2-2-2-2----|---2-2-2-2-2-2-2-2----|---0-0-0-0-0-0-0-0----|---2-2-2-2-2-2-2-2----|
Eb|---0-0-0-0-0-0-0-0----|----------------------|----------------------|----------------------|


VERSE 2

GUITAR 1   (I don't know the notation)
                    C#m
Eb|---------4-7-4---------------|
Bb|-------5-------5-------------|
Gb|-----4-----------4-----------|
Db|-----------------------------|
Ab|---4-------------------------|
Eb|-----------------------------|
                C#m
Eb|---------5---------------|
Bb|-------5---5-------------|
Gb|-----6-------6-----------|
Db|-------------------------|
Ab|---0---------------------|
Eb|-------------------------|
                    C#m
Eb|---------4-7-4---------------|
Bb|-------5-------5-------------|
Gb|-----4-----------4-----------|
Db|-----------------------------|
Ab|---4-------------------------|
Eb|-----------------------------|
              C#m
Eb|-------------------------|
Bb|---------4-5-------------|
Gb|-------6-----------------|
Db|-----7-------------------|
Ab|---0---------------------|
Eb|-------------------------|

GUITAR 2

            C#m     G#sus2         E       B
Eb|----------------------|----------------------|
Bb|---5-5-5-5-0-0-0-0----|---0-0-0-0-0-0-0-0----|
Gb|---6-6-6-6-2-2-2-2----|---1-1-1-1-4-4-4-4----|
Db|---6-6-6-6-2-2-2-2----|---2-2-2-2-4-4-4-4----|
Ab|---4-4-4-4-0-0-0-0----|---2-2-2-2-2-2-2-2----|
Eb|----------------------|---0-0-0-0------------|

            C#m     G#sus2         E       B
Eb|----------------------|----------------------|
Bb|---5-5-5-5-0-0-0-0----|---0-0-0-0-0-0-0-0----|
Gb|---6-6-6-6-2-2-2-2----|---1-1-1-1-4-4-4-4----|
Db|---6-6-6-6-2-2-2-2----|---2-2-2-2-4-4-4-4----|
Ab|---4-4-4-4-0-0-0-0----|---2-2-2-2-2-2-2-2----|
Eb|----------------------|---0-0-0-0------------|

            C#m     G#sus2         E       B
Eb|----------------------|----------------------|
Bb|---5-5-5-5-0-0-0-0----|---0-0-0-0-0-0-0-0----|
Gb|---6-6-6-6-2-2-2-2----|---1-1-1-1-4-4-4-4----|
Db|---6-6-6-6-2-2-2-2----|---2-2-2-2-4-4-4-4----|
Ab|---4-4-4-4-0-0-0-0----|---2-2-2-2-2-2-2-2----|
Eb|----------------------|---0-0-0-0------------|


PRE-CHORUS 2
(Same as Pre-Chorus 1)


CHORUS 2
(Same as Chorus 1)


BRIDGE 

BOTH GUITARS
            C#m                    B
Eb|----------------------|----------------------|
Bb|----------------------|----------------------|
Gb|---6-6-6-6-X-X-X-X----|---4-4-4-4-X-X-X-X----|
Db|---6-6-6-6-X-X-X-X----|---4-4-4-4-X-X-X-X----|
Ab|---4-4-4-4-X-X-X-X----|---2-2-2-2-X-X-X-X----|
Eb|----------------------|----------------------|

            G#sus2               B
Eb|----------------------|----------------------|
Bb|----------------------|----------------------|
Gb|---2-2-2-2-X-X-X-X----|---4-4-4-4-4-4-4-4----|
Db|---2-2-2-2-X-X-X-X----|---4-4-4-4-4-4-4-4----|
Ab|---0-0-0-0-X-X-X-X----|---2-2-2-2-2-2-2-2----|
Eb|----------------------|----------------------|

            C#m                    B
Eb|----------------------|----------------------|
Bb|----------------------|----------------------|
Gb|---6-6-6-6-X-X-X-X----|---4-4-4-4-X-X-X-X----|
Db|---6-6-6-6-X-X-X-X----|---4-4-4-4-X-X-X-X----|
Ab|---4-4-4-4-X-X-X-X----|---2-2-2-2-X-X-X-X----|
Eb|----------------------|----------------------|

            G#sus2               B
Eb|----------------------|----------------------|
Bb|----------------------|----------------------|
Gb|---2-2-2-2-X-X-X-X----|---4-4-4-4-4-4-4-4----|
Db|---2-2-2-2-X-X-X-X----|---4-4-4-4-4-4-4-4----|
Ab|---0-0-0-0-X-X-X-X----|---2-2-2-2-2-2-2-2----|
Eb|----------------------|----------------------|

            C#m                    B
Eb|----------------------|----------------------|
Bb|----------------------|----------------------|
Gb|---6-6-6-6-X-X-X-X----|---4-4-4-4-X-X-X-X----|
Db|---6-6-6-6-X-X-X-X----|---4-4-4-4-X-X-X-X----|
Ab|---4-4-4-4-X-X-X-X----|---2-2-2-2-X-X-X-X----|
Eb|----------------------|----------------------|

GUITAR 1
                    B                G#sus2
Eb|---------0------------|-----------0------|
Bb|-------3---3----------|---------0--------|
Gb|-----2-------2---2----|-------2----------|
Db|---0-----------0------|-----2------------|
Ab|----------------------|---0--------------|
Eb|----------------------|------------------|

GUITAR 2
                    B                      G#sus2
Eb|----------------------|----------------------|
Bb|----------------------|----------------------|
Gb|---4-4-4-4-4-4-4-4----|---2-2-2-2-2-2-2-2----|
Db|---4-4-4-4-4-4-4-4----|---2-2-2-2-2-2-2-2----|
Ab|---2-2-2-2-2-2-2-2----|---0-0-0-0-0-0-0-0----|
Eb|----------------------|----------------------|


SOLO

GUITAR 1
Eb|--------------------|----------4-5-4------|
Bb|---2-4-5--2-4-5-----|---2-4-5--------7----|
Gb|--------------------|---------------------|
Db|--------------------|---------------------|
Ab|--------------------|---------------------|
Eb|--------------------|---------------------|

Eb|--------------------|----------4-5-4------|
Bb|---2-4-5--2-4-5-----|---2-4-5--------7----|
Gb|--------------------|---------------------|
Db|--------------------|---------------------|
Ab|--------------------|---------------------|
Eb|--------------------|---------------------|

GUITAR 2
            C#m     G#sus2         E       B
Eb|----------------------|----------------------|
Bb|---5-5-5-5-0-0-0-0----|---0-0-0-0-0-0-0-0----|
Gb|---6-6-6-6-2-2-2-2----|---1-1-1-1-4-4-4-4----|
Db|---6-6-6-6-2-2-2-2----|---2-2-2-2-4-4-4-4----|
Ab|---4-4-4-4-0-0-0-0----|---2-2-2-2-2-2-2-2----|
Eb|----------------------|---0-0-0-0------------|

            C#m     G#sus2         E       B
Eb|----------------------|----------------------|
Bb|---5-5-5-5-0-0-0-0----|---0-0-0-0-0-0-0-0----|
Gb|---6-6-6-6-2-2-2-2----|---1-1-1-1-4-4-4-4----|
Db|---6-6-6-6-2-2-2-2----|---2-2-2-2-4-4-4-4----|
Ab|---4-4-4-4-0-0-0-0----|---2-2-2-2-2-2-2-2----|
Eb|----------------------|---0-0-0-0------------|


PRE-CHORUS 3
(Same as Pre-Chorus 1)


CHORUS 3

GUITAR 2

                    E                      B                      G#sus2                 B
Eb|----------------------|----------------------|----------------------|----------------------|
Bb|----------------------|----------------------|----------------------|----------------------|
Gb|----------------------|---4-4-4-4-4-4-4-4----|---2-2-2-2-2-2-2-2----|---4-4-4-4-4-4-4-4----|
Db|---2-2-2-2-2-2-2-2----|---4-4-4-4-4-4-4-4----|---2-2-2-2-2-2-2-2----|---4-4-4-4-4-4-4-4----|
Ab|---2-2-2-2-2-2-2-2----|---2-2-2-2-2-2-2-2----|---0-0-0-0-0-0-0-0----|---2-2-2-2-2-2-2-2----|
Eb|---0-0-0-0-0-0-0-0----|----------------------|----------------------|----------------------|

                    E                      B                      G#sus2                 B
Eb|----------------------|----------------------|----------------------|----------------------|
Bb|----------------------|----------------------|----------------------|----------------------|
Gb|----------------------|---4-4-4-4-4-4-4-4----|---2-2-2-2-2-2-2-2----|---4-4-4-4-4-4-4-4----|
Db|---2-2-2-2-2-2-2-2----|---4-4-4-4-4-4-4-4----|---2-2-2-2-2-2-2-2----|---4-4-4-4-4-4-4-4----|
Ab|---2-2-2-2-2-2-2-2----|---2-2-2-2-2-2-2-2----|---0-0-0-0-0-0-0-0----|---2-2-2-2-2-2-2-2----|
Eb|---0-0-0-0-0-0-0-0----|----------------------|----------------------|----------------------|


OUTRO

GUITAR 2

                    E                      B                      G#sus2                 B
Eb|----------------------|----------------------|----------------------|----------------------|
Bb|----------------------|----------------------|----------------------|----------------------|
Gb|----------------------|---4-4-4-4-4-4-4-4----|---2-2-2-2-2-2-2-2----|---4-4-4-4-4-4-4-4----|
Db|---2-2-2-2-2-2-2-2----|---4-4-4-4-4-4-4-4----|---2-2-2-2-2-2-2-2----|---4-4-4-4-4-4-4-4----|
Ab|---2-2-2-2-2-2-2-2----|---2-2-2-2-2-2-2-2----|---0-0-0-0-0-0-0-0----|---2-2-2-2-2-2-2-2----|
Eb|---0-0-0-0-0-0-0-0----|----------------------|----------------------|----------------------|

                    E                      B                      G#sus2                 B
Eb|----------------------|----------------------|----------------------|----------------------|
Bb|----------------------|----------------------|----------------------|----------------------|
Gb|----------------------|---4-4-4-4-4-4-4-4----|---2-2-2-2-2-2-2-2----|---4-4-4-4-4-4-4-4----|
Db|---2-2-2-2-2-2-2-2----|---4-4-4-4-4-4-4-4----|---2-2-2-2-2-2-2-2----|---4-4-4-4-4-4-4-4----|
Ab|---2-2-2-2-2-2-2-2----|---2-2-2-2-2-2-2-2----|---0-0-0-0-0-0-0-0----|---2-2-2-2-2-2-2-2----|
Eb|---0-0-0-0-0-0-0-0----|----------------------|----------------------|----------------------|

BOTH GUITARS
              C#m
Eb|-----------------|
Bb|---5-5-5-5-5-----|
Gb|---6-6-6-6-6-----|
Db|---6-6-6-6-6-----|
Ab|---4-4-4-4-4-----|
Eb|-----------------|


comments
We did not receive enough feedback on this tab! Please rate:
print report bad tab
1 2 3 4 5
I want to post or [tab]
guest
You may want to rate the tab now too:
select rating
Please do not post tabs as comments. Select "correction" instead!