Oops, an error
Loading. Please wait.

Shut Up Tab

ver6
ver6
More versions @911Tabs.com
3,326 views 1 this week
5 commentsread comments
1 2 3 4 5
accurate
x 3
Autoscroll
+/-
esc
set tempo
stop
Contributor
Difficulty
intermediate
WARNING: You are trying to view
                                    content from Ultimate-Guitar.com
                                    in an unauthorized application,
                                    which is prohibited.

                                    Please use an official Ultimate
                                    Guitar Tabs application for iPhone,
                                    iPad or Android to access legitimate
                                    chords, guitar, bass, and drum tabs
                                    from Ultimate-Guitar.com database.

                                    Type "ultimate guitar tabs" in Apple
                                    App Store's or Android Market's
                                    search to find the application.
Band: Simple Plan
Album: Still Not Getting Any
Track: Shut Up
Tabber:Ben Downes
guitar Legend
* = palm mute
h = hammer on
p = pull off
/ = slide up 
\ = slide down
+ = harmonic
b = bend
r = release


Intro Let a little bit of fold back through then play these chords 
d#|------------------------------------|-guitar 2
A#|------------------------------------|
F#|-7----------------------------------|
C#|-7-many-times-5------------7--------|\
G#|-5------------5-many-times-7-twice--| x2
D#|--------------3------------5--------|/

With this over the top guitar 1
d#|---------------------------------------------|\
A#|---------------------------------------------| \
F#|-11-12-12-11-12-12-11-12-12-12-12-12-11-9-7--|  \
C#|---------------------------------------------|   \
G#|---------------------------------------------|    \
D#|---------------------------------------------|     \
                                                       \
d#|---------------------------------------------|       \
A#|---------------------------------------------|        \
F#|-11-12-12-11-12-12-11-12-12-12-12-12-11-9-9--|---------\
C#|---------------------------------------------|          \
G#|---------------------------------------------|           \
D#|---------------------------------------------|            \            
                                                              x2
d#|---------------------------------------------|            /
A#|---------------------------------------------|           /
F#|-11-12-12-11-12-12-11-12-12-12-12-12-11-9-7--|----------/
C#|---------------------------------------------|         /
G#|---------------------------------------------|        /
D#|---------------------------------------------|       /
                                                       /
d#|---------------------------------------------|     /
A#|---------------------------------------------|    /
F#|-11-12-12-11-12-12-11-12-12-12-12-12-11-9-9--|   /
C#|---------------------------------------------|  /
G#|---------------------------------------------| /
D#|---------------------------------------------|/

Then go straight into the verse
Verse 1 both guitarists this time
d#|---------------------------------------|
A#|---------------------------------------|
F#|-7-77777777----------------------------|
C#|-7-77777777-77777777-5555555-7777-7-7--|
G#|-5-55555555-77777777-5555555-7777-7-7--|
D#|------------55555555-3333333-5555-5-5--|
      ******** ******** ******* ****

pre chorus both guitarists
d#|-------------------------------------|
A#|-------------------------------------|
F#|----------------------------------7--|
C#|-9-9-9999-7-7-7777-5-5-5555-7-7-7-7--|
G#|-9-9-9999-7-7-7777-5-5-5555-7-7-7-5--|
D#|-7-7-7777-5-5-5555-3-3-3333-5-5-5----|
        ****     ****     ****     

d#|--------------------------|
A#|--------------------------|
F#|--------------------------|
C#|-9-9-9999-7-7-7777-5-5-5--|
G#|-9-9-9999-7-7-7777-5-5-5--|
D#|-7-7-7777-5-5-5555-3-3-3--|
        ****     ****
       
chorus  both guitarist
d#|-------------------------------------------------|
A#|-------------------------------------------------|
F#|-7-----------------------------------------------|
C#|-7-many-times-7------------9------------5--------|
G#|-5------------7-twice------9-many-times-5-twice--|
D#|--------------5------------7------------3--------|

intro guitar 2
d#|------------------------------------|
A#|------------------------------------|
F#|-7----------------------------------|
C#|-7-many-times-5------------7--------|\
G#|-5------------5-many-times-7-twice--| x2
D#|--------------3------------5--------|/

guitar 1
d#|---------------------------------------------|\
A#|---------------------------------------------| \
F#|-11-12-12-11-12-12-11-12-12-12-12-12-11-9-7--|  \
C#|---------------------------------------------|   \
G#|---------------------------------------------|    \
D#|---------------------------------------------|     \
                                                       \
d#|---------------------------------------------|       \
A#|---------------------------------------------|        \
F#|-11-12-12-11-12-12-11-12-12-12-12-12-11-9-9--|---------\
C#|---------------------------------------------|          \
G#|---------------------------------------------|           \
D#|---------------------------------------------|            \            
                                                              x2
d#|---------------------------------------------|            /
A#|---------------------------------------------|           /
F#|-11-12-12-11-12-12-11-12-12-12-12-12-11-9-7--|----------/
C#|---------------------------------------------|         /
G#|---------------------------------------------|        /
D#|---------------------------------------------|       /
                                                       /
d#|---------------------------------------------|     /
A#|---------------------------------------------|    /
F#|-11-12-12-11-12-12-11-12-12-12-12-12-11-9-9--|   /
C#|---------------------------------------------|  /
G#|---------------------------------------------| /
D#|---------------------------------------------|/



Verse 2 (it's exactly the same as the first verse but the second
time through the 2 verse you play this for 4 times
d#|---------------------------------|--------|
A#|---------------------------------|--------|and on the 4th time 
F#|---------------------------------|--------|you play this
C#|---7--5p4------7-5p4------7-5p4--|---7-5--|<------------------
G#|-7-----------7----------7--------|-7------|
D#|---------------------------------|--------|-guitar 1 plays this while
guitar 2 plays the main chords

pre chorus both guitarist
d#|-------------------------------------|
A#|-------------------------------------|
F#|----------------------------------7--|
C#|-9-9-9999-7-7-7777-5-5-5555-7-7-7-7--|
G#|-9-9-9999-7-7-7777-5-5-5555-7-7-7-5--|
D#|-7-7-7777-5-5-5555-3-3-3333-5-5-5----|
        ****     ****     ****     

d#|--------------------------|
A#|--------------------------|
F#|--------------------------|
C#|-9-9-9999-7-7-7777-5-5-5--|
G#|-9-9-9999-7-7-7777-5-5-5--|
D#|-7-7-7777-5-5-5555-3-3-3--|
        ****     ****

chorus both guitarist
d#|-------------------------------------------------|
A#|-------------------------------------------------|
F#|-7-----------------------------------------------|
C#|-7-many-times-7------------9------------5--------|
G#|-5------------7-twice------9-many-times-5-twice--|
D#|--------------5------------7------------3--------|

intro guitar 2
d#|------------------------------------|
A#|------------------------------------|
F#|-7----------------------------------|
C#|-7-many-times-5------------7--------|\
G#|-5------------5-many-times-7-twice--| x2
D#|--------------3------------5--------|/

guitar 1
d#|---------------------------------------------|\
A#|---------------------------------------------| \
F#|-11-12-12-11-12-12-11-12-12-12-12-12-11-9-7--|  \
C#|---------------------------------------------|   \
G#|---------------------------------------------|    \
D#|---------------------------------------------|     \
                                                       \
d#|---------------------------------------------|       \
A#|---------------------------------------------|        \
F#|-11-12-12-11-12-12-11-12-12-12-12-12-11-9-9--|---------\
C#|---------------------------------------------|          \
G#|---------------------------------------------|           \
D#|---------------------------------------------|            \            
                                                              x2
d#|---------------------------------------------|            /
A#|---------------------------------------------|           /
F#|-11-12-12-11-12-12-11-12-12-12-12-12-11-9-7--|----------/
C#|---------------------------------------------|         /
G#|---------------------------------------------|        /
D#|---------------------------------------------|       /
                                                       /
d#|---------------------------------------------|     /
A#|---------------------------------------------|    /
F#|-11-12-12-11-12-12-11-12-12-12-12-12-11-9-9--|   /
C#|---------------------------------------------|  /
G#|---------------------------------------------| /
D#|---------------------------------------------|/


Bridge (play this 20 times through the hole bridge and in
those 20 times guitar 2 plays this over the top)
guitar 1      guitar 2
d#|----------|--------------------------|and then at the end of
A#|----------|--------------------------|the pre chorus guitar 1 comes in
F#|-----7----|----------------------2b--|with a missive pick scrape from the
C#|---7---7--|-5b-----------------------|17th fret to the 2nd fret on the 
G#|-5--------|--------------------------|low E string which is this one  |
D#|----------|--------------------------|<-------------------------------|

guitar 1
d#|----------------------------|
A#|----------------------------|
F#|----------------------------|
C#|-7777-9-9-7-7-5-------------|
G#|-7777-9-9-7-7-5-many-times--|
D#|-5555-7-7-5-5-3-------------|
    ****

chorus this time you don't play the first chord for the first part of the 
d#|-------------------------------|chorus
A#|-------------------------------|- 
F#|-------------------------------|-both guitarists 
C#|-7-------9------------5--------|
G#|-7-twice-9-many-times-5-twice--|
D#|-5-------7------------3--------|

intro guitar 2
d#|------------------------------------|
A#|------------------------------------|
F#|-7----------------------------------|
C#|-7-many-times-5------------7--------|\
G#|-5------------5-many-times-7-twice--| x2
D#|--------------3------------5--------|/

guitar 1
d#|---------------------------------------------|\
A#|---------------------------------------------| \
F#|-11-12-12-11-12-12-11-12-12-12-12-12-11-9-7--|  \
C#|---------------------------------------------|   \
G#|---------------------------------------------|    \
D#|---------------------------------------------|     \
                                                       \
d#|---------------------------------------------|       \
A#|---------------------------------------------|        \
F#|-11-12-12-11-12-12-11-12-12-12-12-12-11-9-9--|---------\
C#|---------------------------------------------|          \
G#|---------------------------------------------|           \
D#|---------------------------------------------|            \            
                                                              x2
d#|---------------------------------------------|            /
A#|---------------------------------------------|           /
F#|-11-12-12-11-12-12-11-12-12-12-12-12-11-9-7--|----------/
C#|---------------------------------------------|         /
G#|---------------------------------------------|        /
D#|---------------------------------------------|       /
                                                       /
d#|---------------------------------------------|     /
A#|---------------------------------------------|    /
F#|-11-12-12-11-12-12-11-12-12-12-12-12-11-9-9--|   /
C#|---------------------------------------------|  /
G#|---------------------------------------------| /
D#|---------------------------------------------|/

chorus both guitarist
d#|-------------------------------------------------|
A#|-------------------------------------------------|
F#|-7-----------------------------------------------|
C#|-7-many-times-7------------9------------5--------|
G#|-5------------7-twice------9-many-times-5-twice--|
D#|--------------5------------7------------3--------|

both guitarist
d#|---------------------------------------------------|
A#|---------------------------------------------------|
F#|-7-------------------------------------------------|
C#|-7-many-times-7------------9------------5555-5555--|
G#|-5------------7-twice------9-many-times-5555-5555--|
D#|--------------5------------7------------3333-3333--|
                                           **** ****
and then just play this at the end of the
song
d#|------------------------------------------------------|
A#|------------------------------------------------------|
F#|-7----------------------------------------------------|
C#|-7-many-times-7------------5------------7-------------|
G#|-5------------7-many-times-5-many-times-7-many-times--|
D#|--------------5------------3------------5-------------|

d#|-----------|
A#|-----------|
F#|-7-7--7-7--|
C#|-7-7--7-7--|
G#|-5-5--5-5--|
D#|-----------|


hope you enjoy playing the song and good luck
if you have any corrections you have found just email to @ 
catnip50009@hotmail.com thanks see ya.


comments
We did not receive enough feedback on this tab! Please rate:
print report bad tab
1 2 3 4 5
5 comments total. Showing first comments.
0 reply
Ben Downes wrote on July 23 2006, 03:08 am

where it says don't play the first chord for the first bit of the chorus this time, that actually means when pierre bouvier (the lead singer for simple plan) sings the line shut up shut up shut up don't hear it, that's the line you don't play the fist chord of the chorus for but it's also the only part of the song you don't play the first chord of the chorus.

0 reply
greendayfan3358 wrote on August 9 2006, 06:56 pm

the intro is just 11 12 11 12 11 12 12 9 7 too many twelves in there.

0 reply
Ben Downes wrote on August 12 2006, 09:14 am

yeah true

I want to post or [tab]
guest
You may want to rate the tab now too:
select rating
Please do not post tabs as comments. Select "correction" instead!