Oops, an error
Loading. Please wait.

Still Not Getting Any Bass Tab

2,236 views 6 this week
no commentswrite comment
1 2 3 4 5
excellent!
x 2
add to favorites launch autoscroll
font size
0
reset
Autoscroll
+/-
esc
set tempo
stop
Contributor
WARNING: You are trying to view
                                    content from Ultimate-Guitar.com
                                    in an unauthorized application,
                                    which is prohibited.

                                    Please use an official Ultimate
                                    Guitar Tabs application for iPhone,
                                    iPad or Android to access legitimate
                                    chords, guitar, bass, and drum tabs
                                    from Ultimate-Guitar.com database.

                                    Type "ultimate guitar tabs" in Apple
                                    App Store's or Android Market's
                                    search to find the application.
Simple Plan
Still Not Getting Any

Okay, not all of these tabs are mine. The ones that aren't, I've mentioned at the bottom 
the page

The tuning for each song is in with the title

1. Shut Up   (Tuned half step down)     RoknOutInMyRoom

Intro:
|------|------|----------|------|----------|------|----------|
|------|------|----------|------|----------|------|----------|
|------|-5(8)-|-55555----|------|----------|-5(8)-|-55555----|
|-5-5--|------|------555-|-3(8)-|-33335-5--|------|------555-|

|----------|----------|
|----------|----------|
|----------|----------|
|-33303333-|-33335-5--|

Verse 1:
|----(rest)---|-----------|------|------|------|----------|
|----(for 3)--|-----/7-7--|------|-5(8)-|-7(8)-|-5555-----|
|-5h-(counts)-|-----------|-5(8)-|------|------|----------|
|----(of 8)---|-----------|------|------|------|-----5-5--|

Pre-Chorus 1:
|----------|----------|----------|----------|----------|----------|
|----------|----------|----------|----------|----------|----------|
|----------|----------|----------|------5---|----------|----------|
|-77777----|-55555----|-33333----|-55555----|-77777-7--|-55555----|

|-(optional)-|
|------------|
|----(/10h)--|
|-3-3-/15h---|

Chorus 1:
|------|----------|------|----------|------|----------|------|-(soft 5)-|
|------|----------|------|----------|------|----------|------|----------|
|-5(8)-|-5555-----|------|----------|-5(8)-|-5555-----|------|----------|
|------|-----5-5--|-7(8)-|-77773-5--|------|-----5-5--|-7(8)-|-77775-5--|

Post-Chorus 1:
|------|----------|------|----------|------|----------|------|----------|
|------|----------|------|----------|------|----------|-5(8)-|-55557-7--|
|-5(8)-|-55555----|------|----------|-5(8)-|-5-5-5-5--|------|----------|
|------|------555-|-3(8)-|-33335-5--|------|--5-5-5-5-|------|----------|

Verse 2:
|----(rest)---|----------|----------|----------|----------|----------|
|----(for 3)--|----------|----------|----------|----------|----------|
|-5h-(counts)-|----------|-55555550-|----------|----------|----------|
|-----(of 8)--|-----5-5--|----------|-33333330-|-55555550-|-33335-5--|

Pre-Chorus 2:
|----------|----------|----------|----------|-----------|----------|
|----------|----------|----------|----------|-----------|----------|
|----------|----------|----------|------5---|-----------|----------|
|-77777----|-55555----|-33333----|-55555----|-77777-7---|-55555----|

|------------|
|-------5h---|
|------------|
|-333333-----|

[Chorus 1]

Post-Chorus 2:
|------|----------|------|----------|------|----------|------|----------|
|------|-----54---|------|----------|------|---5-54---|-5(8)-|-55557-7--|
|-5(8)-|-5555--75-|------|----------|-5(8)-|-55-5--75-|------|----------|
|------|----------|-3(8)-|-33335-5--|------|----------|------|----------|

Bridge: I think it's this high, but it might be an octave lower, or a combination of the
sorry! I think this is right though.
|----------|------|-----79-|-7h---|------|------|--------|-7h---|------|
|----------|-5h---|-7h-----|------|-7h---|-5h---|-7h--79-|------|-7h---|
|-5h-------|------|--------|------|------|------|--------|------|------|
|----------|------|--------|------|------|------|--------|------|------|

|------|------|-77---|------|------|------|
|-5h---|-7h---|------|-77---|-5(8)-|-5(8)-|
|------|------|------|------|------|------|
|------|------|------|------|------|------|

Chorus 2:
|-(rest)---|----------|------|----------|------|----------|------|-(soft 5)|
|-(for 8)--|----------|------|----------|------|----------|------|---------|
|-(counts)-|----------|------|----------|-5(8)-|-5555-----|------|---------|
|----------|-----5-5--|-7(8)-|-77773-5--|------|-----5-5--|-7(8)-|-77775-5-|

|------|-----------|------|-----------|------|----------|------|----------|
|------|-----/7-7--|------|-----/9-7--|------|----------|------|----------|
|-5(8)-|-5555------|------|-----------|-5(8)-|-5555-----|------|----------|
|------|-----------|-7(8)-|-7777------|------|-----5-5--|-7(8)-|-7---5----|

|-----------------|-----------------|-----------------|-----------------|
|-----------------|-----------------|-----------------|-----------------|
|-55-55-55-55-----|-----------------|-55-55-55-55-----|-----------------|
|------------5-5--|-33-33-33-335-5--|------------5-5--|-33-33-33-335-5--|

Ending:
|-------------|
|-------------|
|-55-55-(end)-|
|-------------|


2. Welcome To My Life   (Standard)

Verse 1:

G|----------------|----------------|----------------|----------------|
D|----------------|----------------|----------------|----------------|
A|-4-4-------4----|-1-1-------1----|----------------|----------------|
E|---------4------|---------1------|-2-2-----1-2----|-4-4-------4-4-4|

Pre-Chorus:

G|----------------|-----------6-5--|-----------3-1--|----------------|
D|-----------4-3--|---------------6|---------------3|----------------| x1
A|---------------4|----------------|----------------|-------------4--|
E|-2-2---2--------|-6-6---6--------|-2-2---2--------|-4----------4---|

Chorus:

G|----------------|----------------|----------------|----------------|
D|----------------|----------------|----------------|----------------|
A|-1-1------------|-4-4--------4---|-1-1------------|-4-4--------4---|
E|---------2-2----|---------4-4----|---------2-2----|---------4-4----|

G|------------------|-----------------|----------------|----------------|
D|------------------|-----------------|----------------|----------------|
A|-1-1/13-----------|-4-4/16------4---|-6-6-6-6-6-6-68-|-9--------------|
E|----------2-2/14--|----------4-4----|----------------|----------------|

G|----------------|
D|----------------|
A|-------------9\-|
E|----------------|

Verse 2:

G|----------------|-------------3--|----------------|----------------|
D|----------------|-----------3---3|-------------4--|-------------6--|
A|-4-4---------4--|-1-1------------|-----------4---4|-----------6---6|
E|-----------4---4|----------------|-2-2------------|-4-4------------|

Pre-Chorus

Chorus:

G|----------------|----------------|----------------|----------------|
D|----------------|----------------|----------------|----------------|
A|-1-1------------|-4-4--------4---|-1-1------------|-4-4--------4---|
E|---------2-2----|---------4-4----|---------2-2----|---------4-4----|

G|------------------|-----------------|----------------|----------------|
D|------------------|-----------------|----------------|----------------|
A|-1-1/13-----------|-4-4/16------4---|-6-6-6-6-6-6-68-|-9--------------|
E|----------2-2/14--|----------4-4----|----------------|----------------|

G|----------------|----------------|
D|----------------|----------------|
A|----------------|-------------4--|
E|----------------|------------4---|

Bridge:

G|----------------|-----------------|-----------------|----------------|
D|----------------|-----------------|-----------------|----------------|
A|------------4---|-1-1-----1-1.4---|-----------------|-4-4-4-4--------|
E|-2-2-----2-2----|-----------------|-2-2-----2-2.4---|---------4-4-4-4|

G|----------------|-----------------|----------------|----------------|
D|----------------|-----------------|----------------|----------------|
A|------------4---|-1-1-----1-1.4---|-6-6-6-6-6-6-68-|-9-9-9-9-9-9/1--|
E|-2-2-----2-2----|-----------------|----------------|----------------|

Chorus:

G|----------------|----------------|----------------|----------------|
D|----------------|----------------|----------------|----------------|
A|----------------|----------------|----------------|-------------4--|
E|----------------|----------------|----------------|------------4---|

G|----------------|----------------|----------------|----------------|
D|----------------|----------------|----------------|----------------|
A|-1-1------------|-4-4--------4---|-6-6-6-6-6-6-68-|-9-9-9-9-9-9-9-9|
E|---------2-2----|---------4-4----|----------------|----------------|

G|----------------|----------------|----------------|----------------|
D|----------------|----------------|----------------|----------------|
A|-1-1------------|-4-4--------4---|-1-1------------|-4-4--------4---|
E|---------2-2----|---------4-4----|---------2-2----|---------4-4----|

G|------------------|-----------------|----------------|----------------|
D|------------------|-----------------|----------------|----------------|
A|-1-1/13-----------|-4-4/16------4---|-6-6-6-6-6-6-68-|-9--------------|
E|----------2-2/14--|----------4-4----|----------------|----------------|

3. Perfect World     (Tune half step down)

Intro
------------------------------------------------|
-----6----6-2-4-6-4-4-242-----------------------|
--44---00-----------------(4)-------------------|    <<< Play 4 second time and let ring)
------------------------------------------------|(x2)

Verse 0:38
-------------------------------------------|
-------------------------------------------|
-44-00----22--44-00-22/14141414------------|      (14's not 1's and 4's)
-------00----------------------------------|

chorus 0:49
-------------------------------------------|
-------------------------------------------|
-4444-0000------2-222----------------------|
-----------0000----------------------------|

-------------------------------------------|
-------------------------------------------|
-4444-0000------2-222/14141414-------------|     (14's)
-----------0000----------------------------|

----------------------------------------------|
----------------------------------------------|
-4444-12121212----------2-222-----------------|     (12's)
---------------12121212-----------------------|

-------------------------------------------|
-------------------------------------------|
--00000000-2222222-------------------------|
-------------------------------------------|

Intro (x2)

Verse 1:35
----------------------------------|
----------------------------------|
-44-00----22--44-00-22------------|
-------00-------------------------|

After Verse
-------------------------------------------|
-------------------------------------------|
-00000000-2222222/14~----------------------|
-------------------------------------------|

Chorus
-------------------------------------------|
-------------------------------------------|
-4444-0000------2-222----------------------|
-----------0000----------------------------|

-------------------------------------------|
-------------------------------------------|
-4444-0000------2-222/14141414-------------|     (14's)
-----------0000----------------------------|

----------------------------------------------|
----------------------------------------------|
-4444-12121212----------2-222-----------------|     (12's)
---------------12121212-----------------------|

-------------------------------------------|
-------------------------------------------|
--00000000-2222222-------------------------|
-------------------------------------------|

Bridge 2:28
--------------------------------------------------|
--------------------------------------------------|
-0000------22222222-2-4-12121212----------22222222|  (12's)
------0000-----------------------12121212---------|

----------------------------------------------------|
----------------------------------------------------|
-12121212----------0000-----------------------------|  (12's and 17)
----------12121212------0000-2222-4444-5555555/17---|

intro
------------------------------------------------|
-----6----6-2-4-6-4-4-242-----------------------|
--44---00---------------------------------------|
------------------------------------------------|

----------------------------9-------------------|
-----6----6-2-4-6-4-4-242467--------------------| (Not too sure about that end bit, I 
know the last note is 9 on Gb)
--44---00---------------------------------------|
------------------------------------------------|


Chorus
-------------------------------------------|
-------------------------------------------|
-4444-0000------2-222----------------------|
-----------0000----------------------------|

-------------------------------------------|
-------------------------------------------|
-4444-0000------2-222/14141414-------------|     (14's)
-----------0000----------------------------|

----------------------------------------------|
----------------------------------------------|
-4444-12121212----------2-222-----------------|     (12's)
---------------12121212-----------------------|

----------------------------------------------------|
----------------------------------------------------|
--00000000-2222222/14141414141414141414141414141414-|    (14's)
----------------------------------------------------|

Ending
------------------------------------------------|
-----6----6-2-4-6-4-4-242-----------------------|
--44---00---------------------------------------|
------------------------------------------------|

------------------------------------------------|
-----6----6-2-4-6-4~~~~~~-----------------------|
--44---00---------------------------------------|
------------------------------------------------|


4. Thank You   (standard)

Intro
g------------------------------------------------|
d------------------------------------------------|
a---444444444444---------------------------------|
e-----------------222222222222---2xs-66--44---1x-|

Verse
g-----------------------------------------------|
d-----------------------------------------------|
a---444444444444--------------------------------| x2
e-----------------222222222222------------------|

Pre chorus
g-----------------------------------------------|
d-----------------------------------------------|
a-6-6--------4-4--------6-6---------------------|
e-----2-2-2------4-4-4------2-2-2--4-4-4--4-4-4-|

Chorus
g--------------------------------------------------|
d--------------------------------------------------|
a-444444444444-------------------------------------| X2
e-------------222222222222-66666666666-44444444444-|

Pre-Verse
g------------------------------------------------|
d------------------------------------------------|
a---444444444444---------------------------------|
e-----------------222222222222---2xs-66--44---1x-|

Verse
g-----------------------------------------------|
d-----------------------------------------------|
a---444444444444--------------------------------| x2
e-----------------222222222222------------------|

Pre chorus
g-----------------------------------------------|
d-----------------------------------------------|
a-6-6--------4-4--------6-6---------------------|
e-----2-2-2------4-4-4------2-2-2--4-4-4--4-4-4-|

Chorus
g--------------------------------------------------|
d--------------------------------------------------|
a-444444444444-------------------------------------|
e-------------222222222222-66666666666-44444444444-|

Bridge
g-------------------------------|
d-------------------------------| X6
a--444444444444-----------------|
e----------------22222222222222-|

g--------------------------------------------------|
d--------------------------------------------------|
a-444444444444-------------------------------------| X6
e-------------222222222222-66666666666-44444444444-|

5. Me Against The World  (tune half step down)

Intro:
|-------------|
|-------------|
|-------------| 2x
|-0~-0~-3~-5~-|

Verse:
|-------------------------------------|
|-------------------------------------|
|----------33333333----------55555555-| 2x
|-00000000----------33333333----------|

Pre-Chorus:
|----------------|
|----------------|
|----------------|
|-0~-0~-3~-55-5~-|

Chorus part 1:
|-------------------------------------|
|-------------------------------------|
|----------33333333----------55555555-| 2x
|-00000000----------33333333----------|

Chorus part 2
|------------|
|------------|
|------------|
|-000000003~-|

Intro:
|-------------|
|-------------|
|-------------| 2x
|-0~-0~-3~-5~-|

Verse:
|-------------------------------------|
|-------------------------------------|
|----------33333333----------55555555-| 2x
|-00000000----------33333333----------|

Pre-Chorus:
|----------------|
|----------------|
|----------------|
|-0~-0~-3~-55-5~-|

Chorus part 1:
|-------------------------------------|
|-------------------------------------|
|----------33333333----------55555555-| 2x
|-00000000----------33333333----------|

Chorus part 3
|-----------------|
|-----------------|
|-----------------|
|-000000000000000-|

Bridge part 1:
|-----------|
|-----------|
|-5~~~-3~~~-|
|-----------|

|--------------------------|
|--------------------------|
|--------------------------|
|-000000000000000000000000-|

Bridge part 2:
|----------------------------------------|
|----------------------------------------|
|-55-33----55-77-55-33-55----------------| 2x    (Not too sure about the bridge)
|-------33----------------00-000-000-000-|

Bridge part 3:
|----------------------------|
|----------------------------|
|-55-33----55----55-33-55----|
|-------33----00----------00-|

|------------|--------------------|
|------------|--------------------|
|-55-33-55---|5555555555555555----|
|----------0-|--------------------|

Chorus part 1:
|-------------------------------------|
|-------------------------------------|
|----------33333333----------55555555-| 2x
|-00000000----------33333333----------|

chorus part 4:
|-------------------------|
|-------------------------|
|-55-33----55----55-33-55-|
|-------33----00----------| (not too sure)

Chorus part 1:
|-------------------------------------|
|-------------------------------------|
|----------33333333----------55555555-| 2x
|-00000000----------33333333----------|

chorus part 5:
|----------------------------|
|----------------------------|
|-55-33----55----55-33-55----| (not too sure)
|-------33----00----------00-|

|------------|----------|-------|
|------------|----------|-------|
|-55-33-55---|-55555555-|-------|
|----------0-|----------|-00~~~-|

6. Crazy  (half step down)   RoknOutInMyRoom

Intro:
|(guitar)|------|------|------|------|------|------|------|------|
|rest-for|------|------|------|------|------|------|------|------|
|---16---|------|------|-4(8)-|-4(8)-|------|------|------|------|
|-beats--|-0(8)-|-0(8)-|------|------|-5(8)-|-5(8)-|-7(8)-|-7(8)-|

Verse 1:
|------|------|------|----------|------|------|------|------|
|------|------|------|----------|------|------|------|------|
|------|------|-4(8)-|-4444444--|------|------|------|------|
|-0(8)-|-0(8)-|------|--------0-|-5(8)-|-5(8)-|-7(8)-|-7(8)-|

Chorus 1:
|------|------|------|----------|------|-----------|------|------|
|------|------|------|----------|------|-----------|------|------|
|------|------|-4(8)-|-4444444--|------|------/764-|------|------|
|-0(8)-|-0(8)-|------|--------0-|-5(8)-|-55555-----|-7(8)-|-7(8)-|

Post-Chorus:
|------|----------|
|------|----------|
|------|-77777----|
|-0(8)-|------542-|

Verse 2: Same as Chorus 1.

[Chorus 1]

Bridge: I'm not sure exactly, but I know that it's reeeaally close.
|----------|----------------|----------|------|-----/998--|
|----------|----------------|----------|------|-----------|
|-4444467--|-------------67-|----------|------|-4444------|
|--------5-|-(rest)-55555---|-00000467-|-7(8)-|---------5-|

|----------------|----------|------|
|----------------|----------|------|
|----------------|----------|------|
|-(rest)-5555555-|-00000467-|-7(8)-|

Verse 3:
|------|------|------|----------|------|------|------|------|
|------|------|------|----------|------|------|------|------|
|-7(8)-|-7(8)-|-4(8)-|-4444444--|------|------|------|------|
|------|------|------|--------0-|-5(8)-|-5(8)-|-7(8)-|-7(8)-|

Chorus 2:
|------|------|------|----------|------|-----------|------|-----------|
|------|------|------|----------|------|-----------|------|-----------|
|------|------|-6(8)-|-6666666--|------|------/986-|------|-------/9\-|
|-2(8)-|-2(8)-|------|--------0-|-7(8)-|-77777-----|-9(8)-|-999999----|

|------|----------|------|----------|------|-----------|------|-----------|
|------|----------|------|----------|------|-----------|------|-----------|
|------|----------|-6(8)-|-6666666--|------|------/986-|------|-------/9\-|
|-2(8)-|-22222424-|------|--------0-|-7(8)-|-77777-----|-9(8)-|-999999----|

Ending Note:
|---------------------------|
|---------------------------|
|---------------------------|
|-2-(hold till end of song)-|

7. Jump   (tune half step down)

intro (4x)
|---------------------------------------------------------------------------|
|---------------------------------------------------------------------------|
|---------------------------------------------------------------------------|
|----0-0--0-0--0-0--0-0-----5-5----------7-7--7-7---------------------------|

verse (2x)
|-------------------------------------|
|-------------------------------------|
|-------------------------------------|
|----0-0-0---0-0-0---5-5-5---7-7-7----|

Prechorus (2x)
|-------------------------------------|
|-------------------------------------|
|-------------------------------------|
|----5-5-5---5-5-5---7-7-7---7-7-7----|

Chorus
|---------------------------------------------------------------------------|
|---------------------------------------------------------------------------|
|---------------------------------------------------------------------------|
|---0-0-----0-0-----5-5-----7-7 3x---5-5--5-5--5-5--5-5-----7-7--7-7--------|

Cont. Chorus
|--------------|
|--------------|
|--------------|
|---6h7-7-6h7--|

verse 4x
Prechorus
Chorus and cont. Chorus

Bridge
|------------------------------------|
|------------------------------------|
|-----7------------------------------|
|-----------------------7-------5 2x-|

Cont. Bridge
|-----------------------------------------------------------------|
|-----------------------------------------------------------------|
|-----------------------------------------------------------------|
|----0-0-0--0-0-0--0-0-0--7-7-7--5-5-5--5-5-5--5-5-5--5-5-5 2x----|

Chorus 3x
cont. Chorus 2x
intro 3x


8. Everytime    (standard)

0:25
Verse
G|---------------------------|
D|---------------------------|
A|-4~---01~------------------|
E|---------------12~--34~----|

Chorus
G|------------------------------------------|
D|------------------------------------------|
A|--4-(16x)-1-(16x)-------------------------|
E|---------------------2-(16x)---4-(16x)----|

G|----------------------------------------------|
D|----------------------------------------------|
A|--4-(16x)-1-(16x)-----------------------------|
E|---------------------2-(16x)---0-(8x)-5-(8x)--|

Verse
G|-----------------------------|
D|-----------------------------|
A|-4----011--------------------|
E|---------------122---344-----|

G|------------------------------------------------------------------|
D|------------------------------------------------------------------|
A|-344--44--44--44-011--11--11--11----------------------------------|
E|---------------------------------122--22--22--22-344--44--44--444-|
                                                                ...
                                                          (palm ^^^ mute)

Chorus
G|------------------------------------------|
D|------------------------------------------|
A|--4-(16x)-1-(16x)-------------------------|
E|---------------------2-(16x)---4-(16x)----|

G|----------------------------------------------|
D|----------------------------------------------|
A|--4-(16x)-1-(16x)-----------------------------|
E|---------------------2-(16x)---0-(8x)-5-(8x)--|

Solo
G|----------------------------------|
D|----------------------------------|
A|----------------------------------|
E|--2(repeat as needed)--55---5--5--|

G|----------------------------------|
D|----------------------------------|
A|-----------------------88----5~---|
E|--2(repeat as needed)-----55------|

Chorus (x2)
G|------------------------------------------|
D|------------------------------------------|
A|--4-(16x)-1-(16x)-------------------------|
E|---------------------2-(16x)---4-(16x)----|

G|----------------------------------------------|
D|----------------------------------------------|
A|--4-(16x)-1-(16x)-----------------------------|
E|---------------------2-(16x)---0-(8x)-5-(8x)--|

9. Promise   (drop D)

Intro (0:04)
|------------------------|
|------------------------| X2
|------6--8-6--8-4\------|
|------------------------|

Intro Part 2
|---------------------------------|
|---------------------------------|
|---4444444444--------------------|
|--------------44444-66x-66x------|

|---------------------------------|
|---------------------------------|
|---4444444444--------------------|
|--------------44444-6-6-6--------|


Verse (0:26)
|------------------------|
|------------------------| X2
|------6--8-6--8-4\------|
|------------------------|

Pre-chorus
|------------------------------------------------------------------|
|------------------------------------------------------------------|
|---44444-------44444------------44444-----------------------------|
|---------44444-------66666------------66666-4~--6-6-6-------------|

Chorus (18's not 1's and 8's)
|----------------------------------------|
|----------------------------------------|
|-4444-4444------------------------------|
|-----------6666-6666-11x11x-44-44-66/18-|

|--------------------------------------------|
|--------------------------------------------|
|-4444-4444----------------------------------|
|-----------18181818-18181818-11x11x-44-44-6-|

Intro Part 2
|---------------------------------|
|---------------------------------|
|---4444444444--------------------|
|--------------44444-66x-66x------|

|---------------------------------|
|---------------------------------|
|---4444444444--------------------|
|--------------44444-6-6-6--------|

Verse
|------------------------------------|
|------------------------------------|
|--4-44-44-44-4-44-6--8-6--8-4\------|
|------------------------------------|

|------------------------------------|
|------------------------------------|
|--444444444444444-6--8-6--8-4\------|
|------------------------------------|

Pre Chorus (11's not 1's)
|------------------------------------------------------------------|
|------346------------------------------------346------------------|
|---444------421---444689111111-111111XX---444------643------------|
|---------444------------------------------------666---4~--6-------|

Chorus (18's not 1's and 8's)
       (1's not 11's and 13's not 1's and 3's)
|----------------------------------------|
|----------------------------------------|
|-4444-4444------------------------------|
|-----------6666-6666-111111-44-44-666---|

|--------------------------------------------------|
|--------------------------------------------------|
|-4444-4444----------------------------------------|
|-----------18181818-18181818-131313131111-44-44-6-|
(Instead of Playing 18's on the E string you can play 11's on the A string)

Bridge (2:11)
|--------------------------------------------------|
|--------------------------------------------------|
|-4~----4~----4~--------4-4444---------------------|
|------------------6~----------4-4444-66-66-66-xxxx|

Solo   (16's not 1's and 6's)
|----------------------------------------------------------------|
|----------------------------------------------------------------|
|----------------444444------------------------------------------|
|---888888-44444--------66666-888888-666666-444/161616-----------|

|------------------------------------------------------------------|
|------------------------------------------------------------------|
|----------------444444--------------------------------------------|
|---888888-44444--------66666-888888-666666-161616161616-----------|

Second Chorus
|--------------------------------|
|--------------------------------|
|---44---------------------------|
|-------66---11---44-44-6xxx-----|

Chorus (18's not 1's and 8's)
       (1's not 11's and 13's not 1's and 3's)
|---------------------------------------------|
|---------------------------------------------|
|-4444-4444-----------------------------------|
|-----------6666-6666-111111-44-44-666/18/6---|

|------------------------------------------|
|------------------------------------------|
|-4444-4444----------------------------44--|
|-----------6666-6666-111111-44-44-666-----|

10. One   (half step down)

Intro
|----------------------------------------|
|----------------------------------------|
|-55555555-------------------------------|   X2
|----------55555555-3333333333333-5------|

Verse
|----------------------------------------|
|----------------------------------------|
|-555--555----------555--555-------------|
|----------333--333----------333--333----|

|--------------------------|
|--------------------------|
|--------------------------|
|-777---555---333-33335----|

Chorus
|----------------------------------------|
|----------------------------------------|
|-55555555-------------------------------|   X2
|----------55555555-3333333333333-5------|

Bridge

|----------------------------------------|
|----------------------------------------|
|-555--555----------555--555-------------|
|----------333--333----------333--333----|  X4

|-----------------------------|
|----9~-----7~-----5~---------|
|-----------------------------|
|-777----555----333--33335----|

Chorus
|----------------------------------------|
|----------------------------------------|
|-55555555-------------------------------|   X2
|----------55555555-3333333333333-5------|

Bridge 2

|----------------------------------------|
|----------------------------------------|
|----------------------------------------|
|-222--222-333--333-222--222-333--333----| X2

|--------------------------------------------|
|--------------------------------------------|
|--------------------------------------------|
|-7777~--5555~--33333333/1515151515151517----|   (15and 17)

Chorus
|----------------------------------------|
|----------------------------------------|
|-55555555-------------------------------|   X3
|----------55555555-3333333333333-5------|

|-----------------------------|
|-----------------------------|
|--------------------------5~~|
|-777777755555553333333335----|

11. Untitled (Only has bass in live version)

Credit
1. Shut Up - RoknOutInMyRoom
2. Welcome To My Life - Unregistered
3. Perfect World - Me
4. Thank You - Unregistered
5. Me Against The World - Me
6. Crazy - RoknOutInMyRoom
7. Jump - Me
8. Everytime - Me
9. Promise - Me
10. One - Me

I've edited most of the songs on here, just tweaked them a bit and added the fills David plays.
I've also uploaded the tabs of the songs that aren't here seperately
comments
We did not receive enough feedback on this tab! Please rate:
print report bad tab
1 2 3 4 5
I want to post or [tab]
guest
You may want to rate the tab now too:
select rating
Please do not post tabs as comments. Select "correction" instead!