Oops, an error
Loading. Please wait.

Still Not Getting Any Tab

ver1
ver1

Album

More versions @911Tabs.com
7,797 views 21 this week
2 commentsread comments
1 2 3 4 5
accurate
x 4
Autoscroll
+/-
esc
set tempo
stop
Hey! There's an official Ultimate Guitar app which is ideal
for learning songs when you're away from computer. Get the app
WARNING: You are trying to view
                                    content from Ultimate-Guitar.com
                                    in an unauthorized application,
                                    which is prohibited.

                                    Please use an official Ultimate
                                    Guitar Tabs application for iPhone,
                                    iPad or Android to access legitimate
                                    chords, guitar, bass, and drum tabs
                                    from Ultimate-Guitar.com database.

                                    Type "ultimate guitar tabs" in Apple
                                    App Store's or Android Market's
                                    search to find the application.
SIMPLE PLAN - STILL NOT GETTIN ANY

SHUT UP

Tuning: DROP D TUNING!! (DADGBe)

Intro
               GUITAR 1                                GUITAR 2
e|-----------------------------------------I-----------------------------|I
B|-----------------------------------------I-677-677-677-677-4-2-(x4)----|I
G|-------------------------6---------------I-----------------------------|I
D|--4------------------66--6-66-4-6--------I-----------------------------|I
A|--4-(turn up volume)-66--4-66-4-6-(x2)---I-----------------------------|I
E|--4------------------66----66-4-6--------I-----------------------------|I

Verse

e|-----------------------------|I
B|-----------------------------|I
G|-----------------------------|I
D|--6-----------6--------------|I
A|--4-4-6-4-6-6-4---(x2)-------|I
E|----4-6-4-6-6----------------|I

Pre-Chorus

e|------------------------------------|I
B|------------------------------------|I
G|-----------------6------------------|I
D|---8-x-6-x-4-x-6-6--(x2)------------|I
A|---8-x-6-x-4-x-6-4------------------|I
E|---8-x-6-x-4-x-6--------------------|I

Chorus

e|----------------------------------|I
B|----------------------------------|I
G|---6666---------------------------|I
D|---6666-66-8888-4-6---------------|I
A|---4444-66-8888-4-6--(x2)---------|I
E|--------66-8888-4-6---------------|I

Repeat Intro

Repeat Verse

On 2nd verse, play this in the background

DI----3-6-4-3-----I

Repeat Pre-chorus

Repeat Chorus

Repeat Intro

Bridge

e|------------------------------------------------------|
B|------------------------------------------------------|
G|------6----6----6-----6-----------66------------------|
D|-----6-6--6-6--6-6---6-6-- (x4)---66-66---------------|
A|----4-----------------------------44-66---------------|
E|---------6----4-----6----------------66-(pick slide)--|

Repeat Chorus

Repeat Intro


WELCOME TO MY LIFE

-Capo on 1st fret-   --Listen to song for strumming and pauses--

Verse:       C
      Do you ever like breaking down?
             Am
      Do you ever feel out of place?
           C
      Like somehow you just don't belong,
          G
      and no one understands you.
             C
      Do you ever wanna run away?
             Am
      Do you lock yourself in your room?
               C
      With the radio on turned up so loud,
          G
      and no one hears you screaming.

Prechorus:F
          No you don't know what its like
               Am
          When nothing feels alright
              F                                   G
          You don't know what its like to be like me...

Chours:      Am            F           C               G                
       To be hurt, to feel lost, to be left out in the dark
             Am                 F                  C                  G
       To be kicked when you're down, to feel like you've been pushed around 
             Am             F                   C                 G 
       To be on the edge of breaking down, when no one's there to save you
       Dm                               
       No you don't know what its like
     F  -No Strings- C              
       Welcome to my life 
          
Verse: Do you wanna be somebody else?
               Am
       Are you sick of being so left out?
               C
       Are you desperate to find something more,
       G
       before your life is over?
               C
       Are you stuck inside a world you hate?
               Am
       Are you sick of everyone around?
                C
       With the big fake smiles and stupid lies,
             G
       While deep inside your bleeding

Prechorus:F
          No you don't know what its like
               Am
          When nothing feels alright
              F                                   G
          You don't know what its like to be like me...

Chorus:      Am            F           C               G
       To be hurt, to feel lost, to be left out in the dark
             Am               F                  C                  G
       To be kicked when your down, to feel like you've been pushed around
             Am             F                   C                G
       To be on the edge of breaking down, when no ones there to save you
       Dm
       No you don't know what its like
      F -No Strings- C
       Welcome to my life..

Verse:F     
      No one ever lies straight to your face
          Am
      And no one ever stabs you in the back
      F
      You might think I'm happy 
              C            G
      But I'm not gonna be okay
      F
      Everybody always gave you what you wanted
          Am
      You never had to work it was always there
          F                                   G
      You don't know what it's like what it's like..
Strum here
Chorus:      Am            F           C               G
       To be hurt, to feel lost, to be left out in the dark
             Am                 F                  C                  G
       To be kicked when you're down, to feel like you've been pushed around
             Am             F                   C                G
       To be on the edge of breaking down, when no ones there to save you
       Dm                                        F
       No you don't know what its like, what its like
             Am            F           C               G
       To be hurt, to feel lost, to be left out in the dark
             Am                 F                  C                  G
       To be kicked when you're down, to feel like you've been pushed around
             Am             F                   C                G
       To be on the edge of breaking down, when no ones there to save you
       Dm                
       No you don't know what its like
      F -No Strings- C    Am
       Welcome to my life
                     C    G
       Welcome to my life
                     C
       Welcome to my life..


WELCOME TO MY LIFE

1st Verse x2 ..guitar 1(acoustic) starts off guitar 2 kicks in the 2nd time
e|--------------------------------------------------------|
B|--------------------------------------------------------|
G|-6--6--6-6----------------------------------------------|
D|-6--6--6-6---6--6--6-6---8--8--8-8---4--4--4-4----------|
A|-4--4--4-4---6--6--6-6---8--8--8-8---4--4--4-4----------|
E|-------------4--4--4-4---6--6--6-6---2--2--2-2----------|

Pre-Chourus (both guitars)
e|--------------------------------------------------|
B|--------------------------------------------------|
G|--------------------------------------------------|
D|-8-----6------4--------6~-------------------------|
A|-8-x8--6--x8--4--x8--s-6~-------------------------|
E|-6-----4------2--------4~-------------------------|

Chorus (guitar 1)
e|--------------------------------------------------|
B|--------------------------------------------------|
G|---6--------------6xxx---------6------------------|X2
D|-6-6--8xxx--4xxx--6xxx-6xxx--6-6------------------|
A|-6-4--8xxx--4xxx--4xxx-6xxx--6-4------------------|
E|-4----6xxx--2xxx-------4xxx--4--------------------|

then (Continued Guitar 1)
e|---------------------------------------------------|
B|---------------------------------------------------|
G|-------------6666----------------------------------|
D|-8888--4444--6666--6666---------44444444---6~------|
A|-8888--4444--4444--6666---------44444444-s-6~------|
E|-6666--2222--------4444---------22222222---4~------|

Chorus (guitar 2)

e|--9999-8888-9999-11-11-11-11-x3--99999999-s-11~-------|
B|------------------------------------------------------|
G|------------------------------------------------------|
D|------------------------------------------------------|
A|------------------------------------------------------|
E|------------------------------------------------------|

pre-verse (guitar 1)
e|----------------------------------------------------------------------|
B|----------------------------------------------------------------------|
G|--6-6-6-6-------------------------------------------------------------|
D|--6-6-6-6-------------------------------------------------------------|
A|--4-4-4-4-------------------------------------------------------------|
E|----------------------------------------------------------------------|

then do the verse again

then pre-chorus..but on the 2nd pre-chorus the 2nd guitar plays

e|--9---8------------------9-----------------------------------|
B|--------8---x2-----8h9p8-------------------------------------|
G|-------------------------------------------------------------|
D|-------------------------------------------------------------|
A|-------------------------------------------------------------|
E|-------------------------------------------------------------|

then the chorus

then pre-verse x2

then
bridge (both guitars)
e|-----------------------------------------------------------------|
B|-----------------------------------------------------------------|
G|---------------6----------------6---------------6666-------------|
D|-44xx--44xx--6-6--88xx--88xx--6-6--44xx-44xx--6-6666-6666--------|
A|-44xx--44xx--6-4--88xx--88xx--6-4--44xx-44xx--6-4444-6666--------|
E|-22xx--22xx--4----66xx--66xx--4----22xx-22xx--4------4444--------|

bridge (continued)
e|--------------------------------------------------|
B|--------------------------------------------------|
G|---------6----------6-----------------------------|
D|-44xx--6-6--88xx--6-6---66666666---4~-------------|
A|-44xx--6-4--88xx--6-4---66666666-s-4~-------------|
E|-22xx--4----66xx--4-----44444444---2~-------------|

then the 1st half of the chorus like this (guitar 1)
e|-------------------------------------------------------------|
B|-------------------------------------------------------------|
G|---------6~--------------------------------------------------|
D|--8~--4~-6~-6~-----------------------------------------------|
A|--6~--4~-4~-6~--x2-------------------------------------------|
E|--6~--2~----4~-----------------------------------------------|

then the heavy 2nd part of the chorus and then do the chorus again like 2nd part only do 
for the whole thing...

then play the verse riff one more time and end on
e|------------------------------------------------------------------------|
B|------------------------------------------------------------------------|
G|------6~----------------------------------------------------------------|
D|------6~----------------------------------------------------------------|
A|------4~----------------------------------------------------------------|
E|------------------------------------------------------------------------|


PERFECT WORLD

This is tuned down a half step from standard tuning
 
Eb|---------------------------------------------------------------------------|
Bb|---------------------------------------------------------------------------|
Gb|-----1----------1----------------------------------------------------------|
Db|---2---2------2----2-------2---4---2-----2---4---2--------------------x2---|
Ab|-4----------0------------2------------2------------------------------------|
Eb|---------------------------------------------------------------------------|

Eb|---------------------------------------------------------------------------|
Bb|-------9---------9---------------------------------------------------------|
Gb|--6----9----6----9----9----11---13----11---9----8----6---------------------|
Db|--6----7----6----7----9----11---13----11---9----8----6----------------x2---|
Ab|--4---------4---------7----9----11----9----7----6----4---------------------|
Eb|---------------------------------------------------------------------------|

Eb|---------------------------------------------------------------------------|
Bb|---------------------------------------------------------------------------|
Gb|-----1----------1----------------------------------------------------------|
Db|---2---2------2----2-------2---4---2-----2---4---2--------------------x4---|
Ab|-4----------0------------2-------------2----------------------------------|
Eb|---------------------------------------------------------------------------|

Eb|---------------------------------------------------------------------------|
Bb|---------------------------------------------------------------------------|
Gb|--6------------------------------------------------------------------------|
Db|--6----7----2----9-----------7-----9---------------------------------------|
Ab|--4----7----2----9---x3------7-----7---------------------------------------|
Eb|-------5----0----7-----------5-----7---------------------------------------|

Eb|---------------------------------------------------------------------------|
Bb|-------9---------9---------------------------------------------------------|
Gb|--6----9----6----9----9----11---13----11---9----8----6---------------------|
Db|--6----7----6----7----9----11---13----11---9----8----6----------------x2---|
Ab|--4---------4---------7----9----11----9----7----6----4---------------------|
Eb|---------------------------------------------------------------------------|

Eb|---------------------------------------------------------------------------|
Bb|---------------------------------------------------------------------------|
Gb|-----1----------1----------------------------------------------------------|
Db|---2---2------2----2-------2---4---2-----2---4----2-------------------x4---|
Ab|-4----------0------------2------------2------------------------------------|
Eb|---------------------------------------------------------------------------|

Eb|---------------------------------------------------------------------------|
Bb|---------------------------------------------------------------------------|
Gb|--6------------------------------------------------------------------------|
Db|--6----7----2----9-----------7-----9---------------------------------------|
Ab|--4----7----2----9---x3------7-----7---------------------------------------|
Eb|-------5----0----7-----------5-----7---------------------------------------|

Eb|---------------------------------------------------------------------------|
Bb|---------------------------------------------------------------------------|
Gb|-----1----------1----------------------------------------------------------|
Db|---2---2------2----2-------2---4---2-----2---4---2--------------------x4---|
Ab|-4----------0------------2-------------2-----------------------------------|
Eb|---------------------------------------------------------------------------|

Eb|---------------------------------------------------------------------------|
Bb|-------9---------9---------------------------------------------------------|
Gb|--6----9----6----9----9----11---13----11---9----8----6---------------------|
Db|--6----7----6----7----9----11---13----11---9----8----6----------------x2---|
Ab|--4---------4---------7----9----11----9----7----6----4---------------------|
Eb|---------------------------------------------------------------------------|

Eb|---------------------------------------------------------------------------|
Bb|---------------------------------------------------------------------------|
Gb|--6------------------------------------------------------------------------|
Db|--6----7----2----9-----------7-----9---------------------------------------|
Ab|--4----7----2----9---x3------7-----7---------------------------------------|
Eb|-------5----0----7-----------5-----7---------------------------------------|

Eb|---------------------------------------------------------------------------|
Bb|-------9---------9---------------------------------------------------------|
Gb|--6----9----6----9----9----11---13----11---9----8----6---------------------|
Db|--6----7----6----7----9----11---13----11---9----8----6----------------x2---|
Ab|--4---------4---------7----9----11----9----7----6----4---------------------|
Eb|---------------------------------------------------------------------------!


THANK YOU

Key:
X = Scratch/tip string
. = Palm Muting


This Song is prob my fav song on the cd and no one had tabbed it so i thought id give it ago.
Its quite fast

Intro/Main Riff/guitar 2(fast):
e|-------------------------------------------------|
b|-------------------------------------------------|
g|-11--10--8--10--8--6------8--10--6--6-6--6-------|
d|--X---X--X---X--X--X--x2--X---X--X--X-X--X---x2--|
a|--9---8--6---8--6--4------6---8--4--4-4--4-------|
e|-------------------------------------------------|

Intro/Main Riff/guitar 2(fast)Cont'd:
e|----------------------------------------------------------|
b|----------------------------------------------------------|
g|-11--10--8--10--8--6------8--10--6--6-6--6---8-10--8--6-6-|
d|--X---X--X---X--X--X--x2--X---X--X--X-X--X---x--x--x--x-x-|
a|--9---8--6---8--6--4------6---8--4--4-4--4---6--8--6--4-4-|
e|----------------------------------------------------------|

Intro/Main Riff/guitar 1 (fast):
e|-------------------------------------------------|
b|-------------------------------------------------|
g|-666666666666------------------------------------|
d|-666666666666-444444444444--x2-----88--66--------|
a|-444444444444-444444444444---------88--66---x1---|
e|--------------222222222222---------66--44--------|

Verse 1:I thought that I could always count on you...
e|------|
b|------|
g|-6~~--|
d|-6~~--|
a|-4~~--|
e|------|

Pre-Chorus:But I was stupid and you brought me.....
e|------------------------------------------------|
b|------------------------------------------------|
g|-8-8--------6-6--------8-8----------------------|
d|-8-8-4-4-4--6-6-6-6-6--8-8-4-4-4--6-6-6--6-6-6--|
a|-6-6-4-4-4--4-4-6-6-6--6-6-4-4-4--6-6-6--6-6-6--|
e|-----2-2-2------4-4-4------2-2-2--4-4-4--4-4-4--|

Chorus/guitar 1+2 (fast)x2:Thank You for showing me....
e|-----------------------|
b|-----------------------|
g|-6---------------------|you work out strumming
d|-6-x8-4----8----6------|
a|-4----4-x8-8-x8-6-x8---|
e|------2----6----4------|

Play both main riffs

Verse 2(fast):I wonder why it always has to hurt...
e|X-------XXX------X-------XXX--------|
b|X-------XXX------X-------XXX--------|
g|X-6-6--6XXX6-6--6X-------XXX--------|
d|X-6-6--6XXX6-6--6X-4-4--4XXX-4-4-4-4|
a|X-4-4--4XXX4-4--4X-4-4--4XXX-4-4-4-4|
e|X-------XXX------X-2-2--2XXX-2-2-2-2|

Verse 2 Cont'd(fast):
e|X-------XXX------X---------------------------|
b|X-------XXX------X---------------------------|
g|X-6-6--6XXX6-6--6X---------------------------|
d|X-6-6--6XXX6-6--6X-4-4--4~--4-4--4~--4-4--4~-|
a|X-4-4--4XXX4-4--4X-4-4--4~--4-4--4~--4-4--4~-|
e|X-------XXX------X-2-2--2~--2-2--2~--2-2--2~-|
P.M:                ....      ....     .... 

Pre Chorus 

Chorus

Interlude (slow): When the tables turn again.....
e|-------------------------------------------------|
b|-------------------------------------------6--2--|
g|-------0-------------0--------------0------------|
d|----6----6--------6-----6--------6------6--------|x3?
a|-4----------4--4-----------4--4------------------|
e|-------------------------------------------------|

Play Chorus 2x

Finish
e|-----|
b|-----|
g|-6~~-|
d|-6~~-|
a|-4~~-|
e|-----|

ME AGAINST THE WORLD

     Em                  G  
were not gonna be just a part of their game

     D                      A
were not gonna be just the victims

        Em                       G
Theyre takin our dreams and they tear them apart

     D              A
till everyones the same

    Em              
Ive got no place to go

     G
ive got nowhere to run

       D  
They'd love to watch me fall

     A
They think they no it all

     Em             G  
Im a nightmare, a disaster

      D                 A
Thats what they always said

      Em                G        
I'm a lost cause, not a hero

         D             A
But i'll make it on my own

     Em              G 
I'm gonna prove them wrong

    Em.................Em
Its me against the world


ME AGAINST THE WORLD

Guitar 1
          |**   
E|--------|-----------------------------------|
B|--------|-----------------------------------|
G|--------|-----------------------------------|
D|--------|-11-13-13-13-13---11-13-13-13-13---|
A|--------|-11-13-13-13-13---11-13-13-13-13---|
D|--------|-11-13-13-13-13---11-13-13-13-13---|

Guitar 2
     X1   |**
E|--------|-----------------------------------|
B|--------|-----------------------------------|
G|--------|-----------------------------------|
D|-12/1-1-|----------------1------------------|
A|-12/1-1-|----------------1------------------|
D|-12/1-1-|----------------1------------------|

Guitar 1(cont'd)
E|---------------------------------------|
B|---------------------------------------|
G|---------------------------------------|
D|---11-13-13-13-13---11-15-13-13-13-----|
A|---11-13-13-13-13---11-15-13-13-13-----|
D|---11-13-13-13-13---11-15-13-13-13-----|

Guitar 2(cont'd)
E|---------------------------------------|
B|---------------------------------------|
G|---------------------------------------|
D|-4----------------6-------------12/1-1-|
A|-4----------------6-------------12/1-1-|
D|-4----------------6-------------12/1-1-|

Repeat intro from **

Verse 1:
Guitar 2
E|-----|
B|-----|
G|-----|
D|-1~~~|
A|-1~~~|
D|-1~~~|
  not

Guitar 1
E|---------|
B|-------7-|
G|---------|
D|-4-6-8---| x2
A|---------|
D|---------|
*hit the 4s on "taking" and "everyone's"*

Pre-Chorus:
Guitar 1
E|----------------------------------------|
B|----------------------------------------|
G|----------------------------------------|
D|--------11-13-13-13-13---11-13-13-13-13-|
A|--------11-13-13-13-13---11-13-13-13-13-|
D|--------11-13-13-13-13---11-13-13-13-13-|

Guitar 2
E|----------------------------------------|
B|----------------------------------------|
G|----------------------------------------|
D|-12/1-1----------------1----------------|
A|-12/1-1----------------1----------------|
D|-12/1-1----------------1----------------|
  place                 run

Guitar 1(cont'd)
E|-----------------------------------|
B|-----------------------------------|
G|-----------------------------------|
D|---11-15-13-13-13---11-15-13-13-13-|
A|---11-15-13-13-13---11-15-13-13-13-|
D|---11-15-13-13-13---11-15-13-13-13-|

Guitar 2(cont'd)
E|-----------------------------------|
B|-----------------------------------|
G|-----------------------------------|
D|-4----------------6----------------|
A|-4----------------6----------------|
D|-4----------------6----------------|
  fall             fall

Chorus 1:
Guitars 1 and 2
E|------------------------------|
B|------------------------------|
G|------------------------------|
D|-1--1--1-1-1-1--9--9--9-9-9-9-|
A|-1--1--1-1-1-1--9--9--9-9-9-9-|
D|-1--1--1-1-1-1--9--9--9-9-9-9-|

E|--------------------------------------|
B|--------------------------------------|
G|--------------------------------------|
D|-4--4--4-4-4-11--11-11-11-11-11-11-11-|  x2
A|-4--4--4-4-4-11--11-11-11-11-11-11-11-|
D|-4--4--4-4-4-11--11-11-11-11-11-11-11-|

Chorus 2:
Guitar 2:
E|----------------------------|
B|----------------------------|
G|----------------------------|
D|-13-13-13-13-13-13-13-13-11-|
A|-13-13-13-13-13-13-13-13-11-|
D|-13-13-13-13-13-13-13-13-11-|

*not sure on Guitar 1 part here*

Fill 1:
Guitar 1
          |**   
E|--------|-----------------------------------|
B|--------|-----------------------------------|
G|--------|-----------------------------------|
D|--------|-11-13-13-13-13---11-13-13-13-13---|
A|--------|-11-13-13-13-13---11-13-13-13-13---|
D|--------|-11-13-13-13-13---11-13-13-13-13---|

Guitar 2
     X1   |**
E|--------|-----------------------------------|
B|--------|-----------------------------------|
G|--------|-----------------------------------|
D|-12/1-1-|----------------1------------------|
A|-12/1-1-|----------------1------------------|
D|-12/1-1-|----------------1------------------|

Guitar 1(cont'd)
E|---------------------------------------|
B|---------------------------------------|
G|---------------------------------------|
D|---11-13-13-13-13---11-15-13-13-13-----|
A|---11-13-13-13-13---11-15-13-13-13-----|
D|---11-13-13-13-13---11-15-13-13-13-----|

Guitar 2(cont'd)
E|---------------------------------------|
B|---------------------------------------|
G|---------------------------------------|
D|-4----------------6-------------12/1-1-|
A|-4----------------6-------------12/1-1-|
D|-4----------------6-------------12/1-1-|

Repeat fill from **

Fill 2:
Guitar 1 can play this instead of repeating the normal fill:
E|--------------|
B|-10~7~9~6~3~0~|
G|--------------|
D|--------------|
A|--------------|
E|--------------|

Verse 2:
Guitar 2(palm muted)
E|--------------------------|
B|--------------------------|
G|--------------------------|
D|-1-----9-----4-----11-----| x2
A|-1(x8)-9(x8)-4(x8)-11(x8)-|
D|-1-----9-----4-----11-----|
   
Guitar 1
same as verse 1

Chorus 1:
Guitars 1 and 2
E|------------------------------|
B|------------------------------|
G|------------------------------|
D|-1--1--1-1-1-1--9--9--9-9-9-9-|
A|-1--1--1-1-1-1--9--9--9-9-9-9-|
D|-1--1--1-1-1-1--9--9--9-9-9-9-|

E|--------------------------------------|
B|--------------------------------------|
G|--------------------------------------|
D|-4--4--4-4-4-11--11-11-11-11-11-11-11-|  x2
A|-4--4--4-4-4-11--11-11-11-11-11-11-11-|
D|-4--4--4-4-4-11--11-11-11-11-11-11-11-|

Chorus 3
Guitar 2:
E|------------------|
B|------------------|
G|------------------|
D|-13-------13~~11~~|
A|-13-(x16)-13~~11~~|
D|-13-------13~~11~~|

Pre-Bridge:
E|----------------------------------------|
B|----------------------------------------|
G|----------------------------------------|
D|----------------------------------------|
A|----------------------------------------|
D|-1(just strum w/palm mute until bridge)-|

Bridge:
Guitar 1 With Whammy Bar (listen for timing)
E|-------|
B|-6~5~0~|
G|-------|
D|-------|
A|-------|
E|-------|

Guitar 2
E|------------------------------------------------|
B|------------------------------------------------|
G|------------------------------------------------|
D|-4------6------13-13-11-13-13-11-13-13-11-13-13-|x2
A|-4-(x8)-6-(x8)-13-13-11-13-13-11-13-13-11-13-13-|
D|-4------6------13-13-11-13-13-11-13-13-11-13-13-|
            (not sure on these notes, but they sound good)

E|----------------------------------|
B|----------------------------------|
G|----------------------------------|
D|-4------6------9------11-------11-|
A|-4-(x8)-6-(x8)-9-(x8)-11-(x9)--11-|
D|-4------6------9------11-------11-|

Chorus 1:
Guitar 1(whammy Bar)(listen for timing):
*not 100% sure on this part*
E|----------|
B|-10~7~9~5~|
G|----------|x2
D|----------|
A|----------|
E|----------|

Guitar 2
E|------------------------------|
B|------------------------------|
G|------------------------------|
D|-1--1--1-1-1-1--9--9--9-9-9-9-|
A|-1--1--1-1-1-1--9--9--9-9-9-9-|
D|-1--1--1-1-1-1--9--9--9-9-9-9-|

E|--------------------------------------|
B|--------------------------------------|
G|--------------------------------------|
D|-4--4--4-4-4-11--11-11-11-11-11-11-11-|  x2
A|-4--4--4-4-4-11--11-11-11-11-11-11-11-|
D|-4--4--4-4-4-11--11-11-11-11-11-11-11-|

Chorus 4
E|-----------------|
B|-----------------|
G|-----------------|
D|-13------11------|
A|-13-(x8)-11-(x8)-|
D|-13------11------|

Chorus 1:
Guitar 1(whammy Bar)(listen for timing):
*not 100% sure on this part*
E|----------|
B|-10~7~9~5~|
G|----------|x2
D|----------|
A|----------|
E|----------|

Guitar 2
E|------------------------------|
B|------------------------------|
G|------------------------------|
D|-1--1--1-1-1-1--9--9--9-9-9-9-|
A|-1--1--1-1-1-1--9--9--9-9-9-9-|
D|-1--1--1-1-1-1--9--9--9-9-9-9-|

E|--------------------------------------|
B|--------------------------------------|
G|--------------------------------------|
D|-4--4--4-4-4-11--11-11-11-11-11-11-11-|  x2
A|-4--4--4-4-4-11--11-11-11-11-11-11-11-|
D|-4--4--4-4-4-11--11-11-11-11-11-11-11-|

End Riff:
E|----------------------------------|
B|----------------------------------|
G|----------------------------------|
D|-5------7------9------11------1-1-|
A|-5-(x8)-7-(x8)-9-(x8)-11-(x8)-1-1-|
D|-5------7------9------11------1-1-|


CRAZY

This is the Intro, I know it's not quite right..but mess around with it..it sorta works.
I---------------11----------|---------------11-------------------------I
I--------11-----------11----|--------11------------11------------------I
I-----8------8-----8------8-|-----8------8------8------8---------------I
I---8-----------------------|-10---------------------------------------I
I---------------------------|------------------------------------------I
I---------------------------|------------------------------------------I

This is the main riff
I----------------------------------------------------------------------I
I----------------------------------------------------------------------I
I------5---------------------------------------------------------------I
I--1---5---6---8-------------------------------------------------------I
I--1---3---6---8-------------------------------------------------------I
I--1-------6---8-------------------------------------------------------I

The solo I'm not sure of either..somethin like this..
I-----------------------4h6-----------------------------------------------I
I-------------------------------------------------------------------------I
I--------------------3----------------------------------------------------I
I--3/5\3------3\5/3-------------------------------------------------------I
I---------6---------------------------------------------------------------I
I-------------------------------------------------------------------------I

Then for the last verse when the key changes, play this...
I----------------------------------------------------------------------I
I----------------------------------------------------------------------I
I------7---------------------------------------------------------------I
I--3---7---8---10------------------------------------------------------I
I--3---5---8---10------------------------------------------------------I
I--3-------8---10------------------------------------------------------I


JUMP

Intro without distortion palm muted
E---------------------------------------------------|
A---------------------------------------------------|
D---5---5--5--5-5--5---5--5-5---5-5--5-5------------|(JUMP)
G-----4---4--4----4--4---4----4-----4----4-4--------|
B---------------------------------------------------|
E---------------------------------------------------|

Intro #2 with distortion
E--0-0---------0--0-0-----------0-0---------0-0-------|
A--2-2----7----2--2-2-----7-----2-2----7----2-2--7--7-|
D--2-2----9----2--2-2-----9-----2-2----9----2-2--9--7-|
G---------9---------------9------------9---------9--7-| x2
B-----------------------------------------------------|
E-----------------------------------------------------|

Then
E------------------------------------0-0-------0-0------|
A-7-7--x-x--7-7--x-x--7-7--x-x--7----2-2---7---2-2--7-7-|
D-9-9--x-x--9-9--x-x--9-9--x-x--9----2-2---9---2-2--9-7-|
G-9-9--x-x--9-9--x-x--9-9--x-x--9----------9--------9-7-|
B-------------------------------------------------------|
E-------------------------------------------------------|

Then
E--0-0---------0--0-0-----------0-0---------0-0--------|
A--2-2----7----2--2-2-----7-----2-2----7----2-2--7--7~-|
D--2-2----9----2--2-2-----9-----2-2----9----2-2--9--7~-|
G---------9---------------9------------9---------9--7~-|
B------------------------------------------------------|
E------------------------------------------------------|

verse/play until pre-chorus
E--------------------------------------------------|
A--------------------------------------------------|
D---5---5--5--5-5--5---5--5-5---5-5--5-5-----------|
G-----4---4--4----4--4---4----4-----4----4-4-------|
B--------------------------------------------------|
E--------------------------------------------------|

Pre- Chorus
E------------------------------------------------------|
A--x-x--7---x-x--7---x-x--7---x-x--7---x-x--7---x-x--7-|
D--x-x--9---x-x--9---x-x--9---x-x--9---x-x--9---x-x--9-|
G--x-x--9---x-x--9---x-x--9---x-x--9---x-x--9---x-x--9-|
B------------------------------------------------------|
E------------------------------------------------------|

Chorus
E--0-0---------0--0-0-----------0-0---------0-0--------|
A--2-2----7----2--2-2-----7-----2-2----7----2-2--7--7~-|
D--2-2----9----2--2-2-----9-----2-2----9----2-2--9--7~-|
G---------9---------------9------------9---------9--7~-|
B------------------------------------------------------|
E------------------------------------------------------|

E--0-0---------0--0-0-----------0-0---------0-0--------|
A--2-2----7----2--2-2-----7-----2-2----7----2-2--7--7~-|
D--2-2----9----2--2-2-----9-----2-2----9----2-2--9--7~-|
G---------9---------------9------------9---------9--7~-|
B------------------------------------------------------|
E------------------------------------------------------|

E--0-0---------0--0-0-----------0-0---------0-0--------|
A--2-2----7----2--2-2-----7-----2-2----7----2-2--7--7~-|
D--2-2----9----2--2-2-----9-----2-2----9----2-2--9--7~-|
G---------9---------------9------------9---------9--7~-|
B------------------------------------------------------|
E------------------------------------------------------|

E--0-0---------0--0-0-----------0-0---------0-0--------|
A--2-2----7----2--2-2-----7-----2-2----7----2-2--7--7~-|
D--2-2----9----2--2-2-----9-----2-2----9----2-2--9--7~-|
G---------9---------------9------------9---------9--7~-|
B------------------------------------------------------|
E------------------------------------------------------|

E---0-0----0-0----0-0----------|
A---2-2----2-2----2-2----------|
D---2-2----2-2----2-2----------|
G------------------------------|
B------------------------------|
E------------------------------|

Verse 2
E--------------------------------------------------|
A--------------------------------------------------|
D---5---5--5--5-5--5---5--5-5---5-5--5-5-----------|
G-----4---4--4----4--4---4----4-----4----4-4-------|
B--------------------------------------------------|
E--------------------------------------------------|

This the guitar tghat comes in during verse 2

E--------------------------------------------------|
A--------------------------------------------------|
D--------------------------------------------------|
G-4-4-4-4-4-4-4-4-4-4-4-4-6-6-6-6-6-6-6-6-6-6-6-6--|
B-6-6-6-6-6-6-6-6-6-6-6-6-8-8-8-8-8-8-8-8-8-8-8-8--|
E-6-6-6-6-6-6-6-6-6-6-6-6-8-8-8-8-8-8-8-8-8-8-8-8--|

Pre - Chorus

Chorus
E--0-0---------0--0-0-----------0-0---------0-0--------|
A--2-2----7----2--2-2-----7-----2-2----7----2-2--7--7~-|
D--2-2----9----2--2-2-----9-----2-2----9----2-2--9--7~-|
G---------9---------------9------------9---------9--7~-|
B------------------------------------------------------|
E------------------------------------------------------|

E--0-0---------0--0-0-----------0-0---------0-0--------|
A--2-2----7----2--2-2-----7-----2-2----7----2-2--7--7~-|
D--2-2----9----2--2-2-----9-----2-2----9----2-2--9--7~-|
G---------9---------------9------------9---------9--7~-|
B------------------------------------------------------|
E------------------------------------------------------|

E--0-0---------0--0-0-----------0-0---------0-0--------|
A--2-2----7----2--2-2-----7-----2-2----7----2-2--7--7~-|
D--2-2----9----2--2-2-----9-----2-2----9----2-2--9--7~-|
G---------9---------------9------------9---------9--7~-|
B------------------------------------------------------|
E------------------------------------------------------|

E--0-0---------0--0-0-----------0-0---------0-0--------|
A--2-2----7----2--2-2-----7-----2-2----7----2-2--7--7~-|
D--2-2----9----2--2-2-----9-----2-2----9----2-2--9--7~-|
G---------9---------------9------------9---------9--7~-|
B------------------------------------------------------|
E------------------------------------------------------|

E---------------3~---|
A------5--------5~---|
D------7--------5~---|
G------7-------------| x2
B--------------------|
E--------------------|

E-------------------------------------------------------|
A-4-4-4-4-4-4-4-4-4-4-4-4-4-4-4-6-6-6-6-6-6-6-6-6-6-6-6-|
D-6-6-6-6-6-6-6-6-6-6-6-6-6-6-6-8-8-8-8-8-8-8-8-8-8-8-8-|
G-6-6-6-6-6-6-6-6-6-6-6-6-6-6-6-8-8-8-8-8-8-8-8-8-8-8-8-| x2
B-------------------------------------------------------|
E-------------------------------------------------------|

E--------------------------------------------------|
A--------------------------------------------------|
D---5---5--5--5-5--5---5--5-5---5-5--5-5-----------|
G-----4---4--4----4--4---4----4-----4----4-4-------|
B--------------------------------------------------|
E--------------------------------------------------|

Chorus
E--0-0---------0--0-0-----------0-0---------0-0--------|
A--2-2----7----2--2-2-----7-----2-2----7----2-2--7--7~-|
D--2-2----9----2--2-2-----9-----2-2----9----2-2--9--7~-|
G---------9---------------9------------9---------9--7~-|
B------------------------------------------------------|
E------------------------------------------------------|

E--0-0---------0--0-0-----------0-0---------0-0--------|
A--2-2----7----2--2-2-----7-----2-2----7----2-2--7--7~-|
D--2-2----9----2--2-2-----9-----2-2----9----2-2--9--7~-|
G---------9---------------9------------9---------9--7~-|
B------------------------------------------------------|
E------------------------------------------------------|

E--0-0---------0--0-0-----------0-0---------0-0--------|
A--2-2----7----2--2-2-----7-----2-2----7----2-2--7--7~-|
D--2-2----9----2--2-2-----9-----2-2----9----2-2--9--7~-|
G---------9---------------9------------9---------9--7~-|
B------------------------------------------------------|
E------------------------------------------------------|

E--0-0---------0--0-0-----------0-0---------0-0--------|
A--2-2----7----2--2-2-----7-----2-2----7----2-2--7--7~-|
D--2-2----9----2--2-2-----9-----2-2----9----2-2--9--7~-|
G---------9---------------9------------9---------9--7~-|
B------------------------------------------------------|
E------------------------------------------------------!

E--0-0---------0--0-0-----------0-0---------0-0--------|
A--2-2----7----2--2-2-----7-----2-2----7----2-2--7--7~-|
D--2-2----9----2--2-2-----9-----2-2----9----2-2--9--7~-|
G---------9---------------9------------9---------9--7~-|
B------------------------------------------------------|
E------------------------------------------------------|

E--0-0---------0--0-0-----------0-0---------0-0---------|
A--2-2----7----2--2-2-----7-----2-2----7----2-2--7--7~--|
D--2-2----9----2--2-2-----9-----2-2----9----2-2--9--7~--|
G---------9---------------9------------9---------9--7~--| x2
B-------------------------------------------------------|
E-------------------------------------------------------|

E--0-0---------0--0-0-----------0-0---------0-0--------|
A--2-2----7----2--2-2-----7-----2-2----7----2-2--7--7~-|
D--2-2----9----2--2-2-----9-----2-2----9----2-2--9--7~-|
G---------9---------------9------------9---------9--7~-|
B------------------------------------------------------|
E------------------------------------------------------|


EVERYTIME

Tuning: EADGBE

This should be basically what it sounds like... The key i start/end with could be wrong 
Corrections are welcomed of coz... The rhythm is not there so just get the CD and listen 
it for the correct timings! There're some variations here and there by the way but
they're hardly audible. You can play this live and no one will know the difference :P.

Intro - w/ Wahwah + some bending
e|-------------------------------------------------------------------------|
B|-------------------------------------------------------------------------|
G|-------------------------------------------------------------------------|
D|-------------------------------------------------------------------------|
A|-6^6^6^6^6^6^6^6^6^6^6^6^6^6^6^6^6^6^6^6^6^6^6^6^6^6^6^6^6^6^6^6^6^6^6^--|
E|-------------------------------------------------------------------------|

Verse 1 (Voice starts)
Play Guitar 1 & 2 & 3 for the 1st time.
The 2nd time, play only Guitar 1 & 2 & 4
Guitar1 - consistent
Guitar2 - consistent
Guitar3 - play each slide up at the end of each chord change
Guitar4 - keep hammering on 6 till e last 2 hammer-ons, you play 8

Guitar 1 - Electric (Wahwah + bends)
e|-------------------------------------------------------------------------|
B|-------------------------------------------------------------------------|
G|-------------------------------------------------------------------------|
D|-------------------------------------------------------------------------|
A|-6^-x16------------------------------------------------------------------|
E|---------8^-x16--4^-x16--6^-x16------------------------------------------|
Guitar 2 - Acoustic (Clean)
e|-------------------------------------------------------------------------|
B|-------------------------------------------------------------------------|
G|-8-----------------------------------------------------------------------|
D|-8-x16--10------6------8-------------------------------------------------|
A|-6------10-x16--6-x16--8-x16---------------------------------------------|
E|--------8-------4------6-------------------------------------------------|
Guitar 3 - Electric (Distortion)
e|-------------------------------------------------------------------------|
B|-------------------------------------------------------------------------|
G|-------------------------------------------------------------------------|
D|-------------------------------------------------------------------------|
A|-4/6---------------------------------------------------------------------|
E|------6/8--2/4--4/6------------------------------------------------------|
Guitar 4 - Electric (Clean)
e|-------------------------------------------------------------------------|
B|-------------------------------------------------------------------------|
G|-------------------------------------------------------------------------|
D|-------------------------------------------------------------------------|
A|-h6--h6--h6--h6--h6--h6--h6--h6--h6--h6--h6--h6--h6--h6--h6--h6----------|
E|-----------------------------------------------------------------h8--h8--|

Chorus
^^^^^^
Play this section 2 times.
Guitar1 - consistent
Guitar2 - hammer-on each note as needed
Guitar3 - play part 1 for the 1st 2 times you play the full chorus, play part 2 on the 
time just before the solo

Guitar 1 - Electric (Distortion)
e|-------------------------------------------------------------------------|
B|-------------------------------------------------------------------------|
G|-8-----------------------------------------------------------------------|
D|-8-x16--10------6------8-----8~~~~~--------------------------------------|
A|-6------10-x16--6-x16--8-x15-8~~~~~-(Fade off on 2nd play)---------------|
E|--------8-------4------6-----6~~~~~--------------------------------------|
Guitar 2 - Electric (Clean)
e|-------------------------------------------------------------------------|
B|-------------------------------------------------------------------------|
G|-------------------------------------------------------------------------|
D|-------------------------------------------------------------------------|
A|-h6--h6--h6--h6----------------------------------------------------------|
E|-----------------h8--h8--h8--h8--h4--h4--h4--h4--h6--h6--h6--h6----------|
Guitar 3 - Electric (Distortion) - Part 1
e|-------------------------------------------------------------------------|
B|-------------------------------------------------------------------------|
G|-------------------------------------------------------------------------|
D|-8~~~--------------------------------------------------------------------|
A|-8~~~-(Fade off on 2nd play)---------------------------------------------|
E|-6~~~--------------------------------------------------------------------|
Guitar 3 - Electric (Distortion) - Part 2
e|-------------------------------------------------------------------------|
B|-------------------------------------------------------------------------|
G|-------------------------------------------------------------------------|
D|-4-----6-----------------------------------------------------------------|
A|-4-x8--6-x8--------------------------------------------------------------|
E|-2-----4-----------------------------------------------------------------|

Verse 2
^^^^^^^
Play guitar 1 & 2 for the 1st time.
Play guitar 1 & 2 & 3 for the 2nd time.
Guitar1 - consistent
Guitar2 - consistent (this part maybe wrong, you may need to pick it)
Guitar3 - hear it for the rhythm!
Guitar 1 - Electric (Distortion)
e|-------------------------------------------------------------------------|
B|-------------------------------------------------------------------------|
G|-------------------------------------------------------------------------|
D|-------------------------------------------------------------------------|
A|-4-66--------------------------------------------------------------------|
E|-------6-88--2-44--4-66--------------------------------------------------|
Guitar 2 - Electric (Clean)
e|-------------------------------------------------------------------------|
B|-------------------------------------------------------------------------|
G|-------------------------------------------------------------------------|
D|-------------------------------------------------------------------------|
A|-h6--h6--h6--h6----------------------------------------------------------|
E|-----------------h8--h8--h8--h8--h4--h4--h4--h4--h6--h6--h6--h6----------|
Guitar 3- Electric (Distortion)
e|-------------------------------------------------------------------------|
B|-------------------------------------------------------------------------|
G|-------------------------------------------------------------------------|
D|-88--88-88-8-------------------------------------------------------------|
A|-66--66-66-6--1010--1010-1010-10--66--66-66-6--88--88-88-8---------------|
E|--------------8-8---8-8--8-8--8---44--44-44-4--66--66-66-6---------------|

Solo
^^^^
Sounds like an effect has been added. Not sure though.
Guitar1 - consistent
Guitar2 - consistent

Guitar 1 - Electric (Distortion)
e|---------------|---------------------------------------------------------|
B|---------------|---------------------------------------------------------|
G|-8-------------|-8-------------------------------------------------------|
D|-8-x16--10-----|-8-x16--4-----4--6/8-4-6/8-4-4~~~------------------------|
A|-6------10-x16-|-6------4-x5--4--6/8-4-6/8-4-4~~~------------------------|
E|--------8------|--------2-----2--4/6-2-4/6-2-2~~~------------------------|

Guitar 2 - Electric (Distortion)
e|-------------------------------------------------------------------------|
B|-------------------------------------------------------------------------|
G|-8-8-8-8-6-6-6-6-4-4-4-4-2-2-2-2-3/5-5-5-5-5-3-5/7-3-5/7-3/8-------------|
D|-------------------------------------------------------------------------|
A|-------------------------------------------------------------------------|
E|-------------------------------------------------------------------------|
****************************************************************************
e|-------------------------------------------------------------------------|
B|-------------------------------------------------------------------------|
G|-8-8-8-8-6-6-6-6-4-4-4-4-2-2-2-2-3/5-5-5-5-5-3-5/7-3-5/7-5/3-------------|
D|-------------------------------------------------------------------------|
A|-------------------------------------------------------------------------|
E|-------------------------------------------------------------------------|

Ending Fade-Off
^^^^^^^^^^^^^^^
Guitar 1 - Electric (Distortion)
e|-------------------------------------------------------------------------|
B|-------------------------------------------------------------------------|
G|-8~~~--------------------------------------------------------------------|
D|-------------------------------------------------------------------------|
A|-------------------------------------------------------------------------|
E|-------------------------------------------------------------------------|

Guitar 2 - Electric (Distortion)
e|-------------------------------------------------------------------------|
B|-------------------------------------------------------------------------|
G|-8~~~--------------------------------------------------------------------|
D|-8~~~--------------------------------------------------------------------|
A|-6~~~--------------------------------------------------------------------|
E|-------------------------------------------------------------------------|

Order:
~~~~~~
| Intro x 1
| Verse 1 x 1
| Chorus x 1
| Verse 2 x 1
| Chorus x 2
| Solo x 1
| Verse 1 x 1 + Pianos
| Chorus x 2
| Chorus x 1 + Solo x 1
| Ending Fade-Off x 1

Legend:
~~~~~~~
| /  slide
| h  hammer-on
| ~  let it ring


PROMISE

This is Drop D tuning
There are 2 guitars i havent finished the solo ill get that in in a few days but everything else
is there.

intro part 1 x2
Gt.1                                      Gt.2
|----------------------------------------|------------------------|
|----------------------------------------|------------------------|
|---6-66-666-6-66-666-6-66-666-8-10-8-10-|------8-10-8-10-6\------|
|---x-xx-xxx-x-xx-xxx-x-xx-xxx-x--x-x--x-|------6--8-6--8-4\------|
|---4-44-444-4-44-444-4-44-444-6--8-6--8-|------6--8-6--8-4\------|
|----------------------------------------|------------------------|

intro part 2 
Gt.1 x2                               Gt.2 x2
|---------------------------------|--------------------------------|
|---------------------------------|--------------------------------|
|---6666666666--------------------|-66-8-8/10----8-10-8-10---------|
|---6666666666-44444-66x-66x------|-xx-x-x--x-x3-x--x-x--x---------|
|---4444444444-44444-66x-66x------|-44-6-6/-8----6--8-6--8---------|
|--------------44444-66x-66x------|--------------------------------|

fill dont play last part of each gt in intro part 2 play this
Gt.1                                Gt.2
|---------------------------------|--------------------------------|
|---------------------------------|--------------------------------|
|---------------------------------|---888-10-8-6-------------------|
|---6-6-6-------------------------|---xxx--x-x-x-------------------|
|---6-6-6-------------------------|---666--8-6-4-------------------|
|---6-6-6-------------------------|--------------------------------|

verse 1 is same as intro part 1

prechorus
Both Guitars
|------------------------------------------------------------------|
|------------------------------------------------------------------|
|---66666-------66666------------66666-----------------------------|
|---66666-44444-66666-66666------66666-66666-4~--6-6-6-------------|
|---44444-44444-44444-66666------44444-66666-4~--6-6-6-------------|
|---------44444-------66666------------66666-4~--6-6-6-------------|

chorus x2
Gt.1                               Gt.2
|------------------------------------|-------------------------------------|
|------------------------------------|-------------------------------------|
|-6666-6666--------------------------|-6666-6666-8888-8888-88-88-66-66-8---|
|-6666-6666-6666-6666-11x11x-44-44-6-|-6666-6666-8888-8888-88-88-66-66-8---|
|-4444-4444-6666-6666-11x11x-44-44-6-|-4444-4444-6666-6666-66-66-44-44-6---|
|-----------6666-6666-11x11x-44-44-6-|-------------------------------------|

intro part 2 and fill
verse 2
Gt.1 x2                                Gt.2 comes in on 2nd time through
|------------------------------------|--9---9---9---9---9------------------|
|------------------------------------|----9---9---9---9---8-10-8-10--------|
|--66-66-66-6-66-8-10-8-10-----------|--------------------8-10-8-10--------|
|--66-66-66-6-66-8-10-8-10-----------|--------------------6--8-6--8--------|
|--44-44-44-4-44-6--8-6--8-----------|-------------------------------------|
|------------------------------------|-------------------------------------|

prechorus
chorus

bridge
Gt.1
|------------------------------------------------------------|
|------------------------------------------------------------|
|---6~--6~--6~---6~---6~---6~-----6-6666---------------------|
|---6~--6~--6~-6~6~-6~6~-6~6~-6~--6-6666-4-4444-66-66-66-xx--|
|---4~--4~--4~-6~4~-6~4~-6~4~-6~--4-4444-4-4444-66-66-66-xx--|
|--------------6~---6~---6~---6~---------4-4444-66-66-66-xx--|
                                    ....   ....  
Gt.2 
|-----------9-8-------9-8------9-11-8-9---9-8----------------|
|---------------9\7-------9-7-----------------9-7------------|
|------------------------------------------------------------|
|------------------------------------------------------------|
|------------------------------------------------------------|
|------------------------------------------------------------|

solo
Gt. 1 x2
|------------------------------------------------------------|
|------------------------------------------------------------|
|----------------666666--------------------------------------|
|---888888-44444-666666-66666-888888-666666-444444-----------|
|---888888-44444-444444-66666-888888-666666-444444-----------|
|---888888-44444--------66666-888888-666666-444444-----------|

im still working on gt.2 solo but to give you an idea for now its in b flat
heres what i know of the solo its the first 32 parts for Gt. 2 all i have left is the last part of it

|------------------6------------------------6----------------|
|---6--6--6--------6---------------8-6--------9b-9b----------|
|---8b-8b-8b-8-6---6-------------6-8-6-8--8b-----------------|
|----------------8---8-------6-8-----------------------------|
|------------------------/8----------------------------------|
|------------------------------------------------------------|

|-----------------------------------------6---6-9-6-9--------|
|---------------------------------6-9-6-9---9----------------|
|---------------------6---6-8-6-8----------------------------|
|---------6---6-8-6-8---8------------------------------------|
|---8-6-8---8------------------------------------------------|
|------------------------------------------------------------|

|---11b-11b-11r-9-112-9---14-13-11-9-------------------------|
|------------------------------------11-9--------------------|
|-----------------------------------------10-8---------------|
|------------------------------------------------------------|
|------------------------------------------------------------|
|------------------------------------------------------------|
new chorus
Gt.1
|--------------------------------|---9-9-----------------------------------|
|--------------------------------|-----------------------------------------|
|---66---------------------------|------------88888--111111-101010---------|
|---66--66---11---44-44-6xxx-----|--------66--88888--111111-101010--44-44-6|
|---44--66---11---44-44-6xxx-----|--------66--66666---99999--88888--44-44-6|
|-------66---11---44-44-6xxx-----|--------66------------------------44-44-6|

plays first chorus once
then gt.1 plays normal chorus while gt.2 plays the intro part 2

both guitars end on
|-------------|
|-------------|
|---6-6-------|
|---6-6-------|
|---4-4-------|
|-------------|


ONE

INTRO
E |----------------------------------------||
B |----------------------------------------||
G |-6-6-6----------------------------------||                    (x2)
D |-6-6-6--6-6-6--5-5-5-5-5-5--5-7---------||
A |-4-4-4--6-6-6--5-5-5-5-5-5--5-7---------||
E |-----------4-4-4--3-3-3-3-3-3--3-5------||


VERSE
E |-------------------------------------------||
B |-------------------------------------------||
G |-6-6-6-6-6-6-------------------------------||                     (x2)
D |-6-6-6-6-6-6-5-5-5-5-5-5-------------------||
A |-4-4-4-4-4-4-5-5-5-5-5-5-------------------||
E |------------------3-3-3-3-3-3--------------||


PRE-CHORUS
E |-----------------------------------||
B |-----------------------------------||
G |-----------------------------------||
D |-9-9-9-7-7-7-5-5-5--5-7------------||
A |-9-9-9-7-7-7-5-5-5--5-7------------||
E |-7-7-7-5-5-5-3-3-3--3-5------------||


CHORUS
E |----------------------------------------||
B |----------------------------------------||
G |-6-6-6----------------------------------||                    (x2)
D |-6-6-6--6-6-6--5-5-5-5-5-5--5-7---------||
A |-4-4-4--6-6-6--5-5-5-5-5-5--5-7---------||
E |-----------4-4-4--3-3-3-3-3-3--3-5------||


POST-CHORUS
E |----------------------------------------||
B |----------------------------------------||
G |-6-6-6-6-6-6----------------------------||
D |-6-6-6-6-6-6-5-5-5-5-5-5----------------||
A |-4-4-4-4-4-4-5-5-5-5-5-5----------------||
E |------------------3-3-3-3-3-3-----------||

BRIDGE
E |--------------------------------------------------------------------||
B |--------------------------------------------------------------------||
G |-6-6-6-6-6-6--------------------------------------------------------||
D |-6-6-6-6-6-6-5-5-5-5-5-5-4-4-4-4-4-4-5-5-5-5-5-5-4-4-4-4-4-4--------||
A |-4-4-4-4-4-4-5-5-5-5-5-5-4-4-4-4-4-4-5-5-5-5-5-5-4-4-4-4-4-4--------||
E |------------------3-3-3-3-3-3-2-2-2-2-2-2-3-3-3-3-3-3-2-2-2-2-2-2---||
(continue down here)
E |---------------||
B |---------------||
G |---------------||
D |-5-5-5-5-5-5---||
A |-5-5-5-5-5-5---|| repeat until chorus
E |-3-3-3-3-3-3---||


OUTRO
E |---------------------------------------||
B |---------------------------------------||
G |---------------------------------------||
D |-9-9-9-7-7-7-5-5-5--5-7--6-6-6---------||
A |-9-9-9-7-7-7-5-5-5--5-7--6-6-6---------||
E |-7-7-7-5-5-5-3-3-3--3-5--4-4-4---------||

INTRO
VERSE
PRE-CHORUS
CHORUS
POST-CHORUS
VERSE
PRE-CHORUS
CHORUS
BRIDGE
CHORUS
OUTRO


UNTITLED

e----------------------------------------------------6h7p6------------|
A-----------------------------------9b(11)-7h9p7~---------7~----------|
D------------------------------6-8----------------------------8-6~----|
G----1s3-6b(8)-4-4s6~--4-6-6s8----------------------------------------|
B-2~------------------------------------------------------------------|
E---------------------------------------------------------------------|
comments
print report bad tab
2 comments total.
0 reply
GuitarAmp58 wrote on January 26 2005, 12:00 am

The Me Against the World tab in this tab is my tab that I put up a while ago, i just put it in under Unregistered. That tab is not this person's work, it's mine.

0 reply
LesPaul_93 wrote on January 14 2006, 12:37 am

right.....

I want to post or [tab]
guest
You may want to rate the tab now too:
select rating
Please do not post tabs as comments. Select "correction" instead!