Oops, an error
Loading. Please wait.

Still Not Getting Any Tab

ver2
ver2

Album

More versions @911Tabs.com
3,540 views 1 this week
no commentswrite comment
1 2 3 4 5
worth learning
x 8
add to favorites launch autoscroll
font size
0
reset
Autoscroll
+/-
esc
set tempo
stop
Contributor
WARNING: You are trying to view
                                    content from Ultimate-Guitar.com
                                    in an unauthorized application,
                                    which is prohibited.

                                    Please use an official Ultimate
                                    Guitar Tabs application for iPhone,
                                    iPad or Android to access legitimate
                                    chords, guitar, bass, and drum tabs
                                    from Ultimate-Guitar.com database.

                                    Type "ultimate guitar tabs" in Apple
                                    App Store's or Android Market's
                                    search to find the application.
1. Shut up
Intro(Dist.)
|-------------------------------------------------|
|------6-7-7-6-7-7-6-7-7-6-7-7-7-6-4-2------------|
|------6-6-6-6-6-6-6-6-6-6-6-6--------------------|
|--2-2--------------------------------------------|
|--2-2--------------------------------------------|
|--4-4--------------------------------------------|
							2x
|-------------------------------------------------|
|------6-7-7-6-7-7-6-7-7-6-7-7-6-4-4--------------|
|------6-6-6-6-6-6-6-6-6-6-6-6-6-6-6--------------|
|-------------------------------------------------|
|-------------------------------------------------|
|-------------------------------------------------|

Verse(Dist.)
|-------------------------------------|
|-------------------------------------|
|-66666666----------------------------|	  2x
|-66666666-44444444-66666666-44444444-|
|-44444444-44444444-66666666-44444444-|
|----------22222222-44444444-22222222-|
pm...................................

Pre-Chorus(Dist.)
|------------------------------------------|
|------------------------------------------|
|---------------------------------2--------|
|--8888xxxx6666xxxx4444xxxx6666-2-2--------|
|--8888xxxx6666xxxx4444xxxx6666-2-4--------|
|--6666xxxx4444xxxx2222xxxx4444-4----------|

|---------------------------------|
|---------------------------------|
|---------------------------------|
|--8888xxxx6666xxxx4-4-4-6--------|
|--8888xxxx6666xxxx4-4-4-6--------|
|--6666xxxx4444xxxx2-2-2-4--------|

Chorus(Dist.)
|---------------------------|
|---------------------------|
|-666666666-----------------|  2x
|-6666666666-6-88888888-4-4-|
|-4444444446-6-88888888-4-4-|
|----------4-4-66666666-2-2-|

Intro(Dist.)
|-------------------------------------------------|
|------6-7-7-6-7-7-6-7-7-6-7-7-7-6-4-2------------|
|------6-6-6-6-6-6-6-6-6-6-6-6--------------------|
|--2-2--------------------------------------------|
|--2-2--------------------------------------------|
|--4-4--------------------------------------------|
							2x
|-------------------------------------------------|
|------6-7-7-6-7-7-6-7-7-6-7-7-6-4-4--------------|
|------6-6-6-6-6-6-6-6-6-6-6-6-6-6-6--------------|
|--2-2--------------------------------------------|
|--2-2--------------------------------------------|
|--4-4--------------------------------------------|

Verse(Dist.)
|-------------------------------------|
|-------------------------------------|
|-66666666----------------------------|	  2x
|-66666666-44444444-66666666-44444444-|
|-44444444-44444444-66666666-44444444-|
|----------22222222-44444444-22222222-|
pm...................................

Pre-Interlude(Dist.)
|-------------------------------|
|-------------------------------|
|-666xxx6x66-6------------------|
|-666xxx6x66-6-6-444xxx4x44-4-6-|
|-444xxx4x44-4-6-444xxx4x44-4-6-|
|--------------4-222xxx2x22-2-4-|

Bridge(Clean)
|--------------------| -----------------------------------|
|---2---2---2---2----| -----------------------------------|
|--1-1-1-1-1-1-1-1---| -xxxx-6-6--------------------------|
|------------------5x| -xxxx-6-6-6-6-444444444--/slide in-|
|-4------------------| -xxxx-4-4-6-6-444444444------------|
|-----4---2---4------| -xxxx-----4-4-222222222------------|

|------------------|
|------------------|
|------------------|
|-6-6-88888888-4-6-|
|-6-6-88888888-4-6-|
|-4-4-66666666-2-4-|

Chorus(Dist.)
|---------------------------|
|---------------------------|
|-666666666-----------------|  3x
|-6666666666-6-88888888-4-6-|
|-4444444446-6-88888888-4-6-|
|----------4-4-66666666-2-4-|


Outro(Dist.)
|---------------------------------------------------|
|------6-7-7-6-7-7-6-7-7-6-7-7-7-6-4-2--------------|
|------6-6-6-6-6-6-6-6-6-6-6-6----------------------|
|--2-2----------------------------------------------|
|--2-2----------------------------------------------|
|--4-4----------------------------------------------|

|---------------------------------------------------|-----------|
|------6-7-7-6-7-7-6-7-7-6-7-7-6-4-4----------------|--66-66-66-|
|------6-6-6-6-6-6-6-6-6-6-6-6-6-6-6--------------2x|--66-66-66-|
|---------------------------------------------------|-----------|
|---------------------------------------------------|-----------|
|---------------------------------------------------|-----------|

2. Welcome To My Life
1st Verse x2 ..guitar 1(acoustic) starts off guitar 2 kicks in the 2nd time
e|--------------------------------------------------------|
B|--------------------------------------------------------|
G|-6--6--6-6----------------------------------------------|
D|-6--6--6-6---8-8-8-8---6-6-6-6------ 4--4--4-4----------|
A|-4--4--4-4---8-8-8-8---6-6-6-6-------4--4--4-4----------|
E|-------------6-6-6-6---4-4-4-4------ 2--2--2-2----------|

Pre-Chourus (both guitars)
e|--------------------------------------------------|
B|--------------------------------------------------|
G|--------------------------------------------------|
D|-8-----6------4--------6~-------------------------|
A|-8-x8--6--x8--4--x8--s-6~-------------------------|
E|-6-----4------2--------4~-------------------------|

Chorus (guitar 1)
e|--------------------------------------------------|
B|--------------------------------------------------|
G|---6--------------6xxx---------6------------------|X2
D|-6-6--8xxx--4xxx--6xxx-6xxx--6-6------------------|
A|-6-4--8xxx--4xxx--4xxx-6xxx--6-4------------------|
E|-4----6xxx--2xxx-------4xxx--4--------------------|

then (Continued Guitar 1)
e|---------------------------------------------------|
B|---------------------------------------------------|
G|-------------6666----------------------------------|
D|-8888--4444--6666--6666---------44444444---6~------|
A|-8888--4444--4444--6666---------44444444-s-6~------|
E|-6666--2222--------4444---------22222222---4~------|

Chorus (guitar 2)

e|--9999-8888-9999-11-11-11-11-x3--99999999-s-11~-------|
B|------------------------------------------------------|
G|------------------------------------------------------|
D|------------------------------------------------------|
A|------------------------------------------------------|
E|------------------------------------------------------|

pre-verse (guitar 1)
e|----------------------------------------------------------------------|
B|----------------------------------------------------------------------|
G|--6-6-6-6-------------------------------------------------------------|
D|--6-6-6-6-------------------------------------------------------------|
A|--4-4-4-4-------------------------------------------------------------|
E|----------------------------------------------------------------------|

then do the verse again

then pre-chorus..but on the 2nd pre-chorus the 2nd guitar plays

e|--9---8------------------9-----------------------------------|
B|--------8---x2-----8h9p8-------------------------------------|
G|-------------------------------------------------------------|
D|-------------------------------------------------------------|
A|-------------------------------------------------------------|
E|-------------------------------------------------------------|

then the chorus

then pre-verse x2

then
bridge (both guitars)
e|-----------------------------------------------------------------|
B|-----------------------------------------------------------------|
G|---------------6----------------6---------------6666-------------|
D|-44xx--44xx--6-6--88xx--88xx--6-6--44xx-44xx--6-6666-6666--------|
A|-44xx--44xx--6-4--88xx--88xx--6-4--44xx-44xx--6-4444-6666--------|
E|-22xx--22xx--4----66xx--66xx--4----22xx-22xx--4------4444--------|

bridge (continued)
e|--------------------------------------------------|
B|--------------------------------------------------|
G|---------6----------6-----------------------------|
D|-44xx--6-6--88xx--6-6---66666666---4~-------------|
A|-44xx--6-4--88xx--6-4---66666666-s-4~-------------|
E|-22xx--4----66xx--4-----44444444---2~-------------|

then the 1st half of the chorus like this (guitar 1)
e|-------------------------------------------------------------|
B|-------------------------------------------------------------|
G|---------6~--------------------------------------------------|
D|--8~--4~-6~-6~-----------------------------------------------|
A|--6~--4~-4~-6~--x2-------------------------------------------|
E|--6~--2~----4~-----------------------------------------------|

then the heavy 2nd part of the chorus and then do the chorus again like 2nd part only do
for the whole thing...

then play the verse riff one more time and end on
e|------------------------------------------------------------------------|
B|------------------------------------------------------------------------|
G|------6~----------------------------------------------------------------|
D|------6~----------------------------------------------------------------|
A|------4~----------------------------------------------------------------|
E|------------------------------------------------------------------------|
3. Perfect World
E|----------------|----------------|----------------|----------------|
B|----------------|----------------|----------------|----------------|
G|----------------|----------------|----------------|----------------|
D|-------5--------|--------5-------|----------------|----------------|
A|-3--6----6------|-----6-----6----|-----6--8--6----|-----6--8--6----|
E|----------------|--4-------------|--6-------------|--6-------------| x 2

 Riff 2 Guitar 1
E|----------------|----------------|----------------|----------------|
B|----------------|----------------|----------------|----------------|
G|--5-5-5-5-------|----------------|--8-8-8-8-------|----------------|
D|--5-5-5-5-------|--6-6-6-6-------|--8-8-8-8-------|--8----8-8-8----|
A|--3-3-3-3-------|--6-6-6-6-------|--6-6-6-6-------|--8----8-8-8----|
E|----------------|--4-4-4-4-------|----------------|--6----6-6-6----| x2

 Guitar 2
E|----------------|----------------|----------------|----------------|
B|------8~--------|-------8~-------|----6--8--------|--6-6-----------|
G|--5-5-----------|----------------|--8-------------|------7/8/7-(5)-| <--- Play (5) seccond time
D|----------------|--6-6-----------|----------------|----------------|
A|----------------|----------------|----------------|----------------|
E|----------------|----------------|----------------|----------------| x2

 Riff 3 (verse)
E|----------------|----------------|----------------|----------------|
B|----------------|----------------|----------------|----------------|
G|----------------|----------------|----------------|----------------|
D|-------5--------|--------5-------|----------------|----------------|
A|-3--6----6------|-----6-----6----|-----6--8--6----|-----6--8--6----|
E|----------------|--4-------------|--6-------------|--6-------------| x 4

 Riff 4 (chorus)
E|----------------|----------------|----------------|----------------|
B|----------------|----------------|----------------|----------------|
G|-xxxx--5-----xx-|----------------|--8-----xx------|----------------|
D|-xxxx--5-x4--xx-|--6-------------|--8-x4--xx------|--8-------------|
A|-xxxx--3-----xx-|--6-x4----------|--6-----xx------|--8-x4----------|
E|----------------|--4-------------|----------------|--6-------------|

 Riff 5
E|----------------|----------------|
B|----------------|----------------|
G|----------------|----------------|
D|--6-------------|--8-------------|
A|--6-x8----------|--8-x8----------|  <--- After you play the chrous 2x, play this.
E|--4-------------|--6-------------|
    .                .

 Riff 6 Guitar 1
E|----------------|----------------|----------------|----------------|
B|----------------|----------------|----------------|----------------|
G|--5-5-5-5-------|----------------|--8-8-8-8-------|----------------|
D|--5-5-5-5-------|--6-6-6-6-------|--8-8-8-8-------|--8----8-8-8----|
A|--3-3-3-3-------|--6-6-6-6-------|--6-6-6-6-------|--8----8-8-8----|
E|----------------|--4-4-4-4-------|----------------|--6----6-6-6----| x2

 Guitar 2
E|----------------|----------------|----------------|----------------|
B|------8~--------|------8~--------|----6--8--------|--6-6-----------|
G|--5-5-----------|----------------|--8-------------|------7/8/7-(5)-|
D|----------------|--6-6-----------|----------------|----------------|
A|----------------|----------------|----------------|----------------|
E|----------------|----------------|----------------|----------------| x2

 Riff 7 (verse)
E|----------------|----------------|----------------|----------------|
B|----------------|----------------|----------------|----------------|
G|----------------|----------------|----------------|----------------|
D|-------5--------|--------5-------|----------------|----------------|
A|-3--6----6------|-----6-----6----|-----6--8--6----|-----6--8--6----|
E|----------------|--4-------------|--6-------------|--6-------------| x 4


E|----------------|----------------|
B|----------------|----------------|
G|----------------|----------------|
D|--6-------------|--8-------------|
A|--6-x8----------|--8-x8----------|
E|--4-------------|--6-------------|
    .                .
 Riff 8
E|----------------|----------------|----------------|----------------|
B|----------------|----------------|----------------|----------------|
G|-xxxx--5-----xx-|----------------|--8-----xx------|----------------|
D|-xxxx--5-x4--xx-|--6-------------|--8-x4--xx------|--8-------------|
A|-xxxx--3-----xx-|--6-x4----------|--6-----xx------|--8-x4----------|
E|----------------|--4-------------|----------------|--6-------------|

 Riff 9
E|----------------|----------------|
B|----------------|----------------|
G|----------------|----------------|
D|--6-------------|--8-------------|
A|--6-x8----------|--8-x8----------|
E|--4-------------|--6-------------|
    .                .


Then it\\'s interlude, which i\\'m not sure about yet, when i figure it out ill add it.


 Riff 11 Guitar 1
E|----------------|----------------|----------------|----------------|
B|----------------|----------------|----------------|----------------|
G|--5-5-5-5-------|----------------|--8-8-8-8-------|----------------|
D|--5-5-5-5-------|--6-6-6-6-------|--8-8-8-8-------|--8----8-8-8----|
A|--3-3-3-3-------|--6-6-6-6-------|--6-6-6-6-------|--8----8-8-8----|
E|----------------|--4-4-4-4-------|----------------|--6----6-6-6----| x2

 Guitar 2
E|----------------|----------------|----------------|----------------|
B|------8~--------|------8~--------|----6--8--------|--6-6-----------|
G|--5-5-----------|----------------|--8-------------|------7/8/7-(5)-|
D|----------------|--6-6-----------|----------------|----------------|
A|----------------|----------------|----------------|----------------|
E|----------------|----------------|----------------|----------------| x2

 Riff 13 (chorus)
E|----------------|----------------|----------------|----------------|
B|----------------|----------------|----------------|----------------|
G|-xxxx--5-----xx-|----------------|--8-----xx------|----------------|
D|-xxxx--5-x4--xx-|--6-------------|--8-x4--xx------|--8-------------|
A|-xxxx--3-----xx-|--6-x4----------|--6-----xx------|--8-x4----------| x4
E|----------------|--4-------------|----------------|--6-------------|

 Riff 14
E|----------------|----------------|
B|----------------|----------------|
G|----------------|----------------|
D|--6-------------|--8-------------|
A|--6-x8----------|--8-x8----------|
E|--4-------------|--6-------------|

 Riff 15 Guitar 1
E|----------------|----------------|----------------|----------------|
B|----------------|----------------|----------------|----------------|
G|--5-5-5-5-------|----------------|--8-8-8-8-------|----------------|
D|--5-5-5-5-------|--6-6-6-6-------|--8-8-8-8-------|--8----8-8-8----|
A|--3-3-3-3-------|--6-6-6-6-------|--6-6-6-6-------|--8----8-8-8----|
E|----------------|--4-4-4-4-------|----------------|--6----6-6-6----| x2

 Guitar 2
E|----------------|----------------|----------------|----------------|
B|------8~--------|------8~--------|----6--8--------|--6-6-----------|
G|--5-5-----------|----------------|--8-------------|------7/8/7-(5)-|
D|----------------|--6-6-----------|----------------|----------------|
A|----------------|----------------|----------------|----------------|
E|----------------|----------------|----------------|----------------| x2
4. Thank You
Intro/Main Riff/guitar 2(fast):
e|-------------------------------------------------|
b|-------------------------------------------------|
g|-11--10--8--10--8--6------8--10--6--6-6--6-------|
d|--X---X--X---X--X--X--x2--X---X--X--X-X--X---x2--|
a|--9---8--6---8--6--4------6---8--4--4-4--4-------|
e|-------------------------------------------------|

Intro/Main Riff/guitar 2(fast)Cont\\'d:
e|----------------------------------------------------------|
b|----------------------------------------------------------|
g|-11--10--8--10--8--6------8--10--6--6-6--6---8-10--8--6-6-|
d|--X---X--X---X--X--X--x2--X---X--X--X-X--X---x--x--x--x-x-|
a|--9---8--6---8--6--4------6---8--4--4-4--4---6--8--6--4-4-|
e|----------------------------------------------------------|

Intro/Main Riff/guitar 1 (fast):
e|-------------------------------------------------|
b|-------------------------------------------------|
g|-666666666666------------------------------------|
d|-666666666666-444444444444--x2-----88--66--------|
a|-444444444444-444444444444---------88--66---x1---|
e|--------------222222222222---------66--44--------|

Verse 1:I thought that I could always count on you...
e|------|
b|------|
g|-6~~--|
d|-6~~--|
a|-4~~--|
e|------|

Pre-Chorus:But I was stupid and you brought me.....
e|------------------------------------------------|
b|------------------------------------------------|
g|-8-8--------6-6--------8-8----------------------|
d|-8-8-4-4-4--6-6-6-6-6--8-8-4-4-4--6-6-6--6-6-6--|
a|-6-6-4-4-4--4-4-6-6-6--6-6-4-4-4--6-6-6--6-6-6--|
e|-----2-2-2------4-4-4------2-2-2--4-4-4--4-4-4--|

Chorus/guitar 1+2 (fast):Thank You for showing me....
e|-----------------------|
b|-----------------------|
g|-6---------------------|x2 (you work out strumming)
d|-6-x8-4----8----6------|
a|-4----4-x8-8-x8-6-x8---|
e|------2----6----4------|


Play both Intro/main riffs


Verse 2(fast):I wonder why it always has to hurt...
e|X-------XXX------X-------XXX--------|
b|X-------XXX------X-------XXX--------|
g|X-6-6--6XXX6-6--6X-------XXX--------|
d|X-6-6--6XXX6-6--6X-4-4--4XXX-4-4-4-4|
a|X-4-4--4XXX4-4--4X-4-4--4XXX-4-4-4-4|
e|X-------XXX------X-2-2--2XXX-2-2-2-2|

Verse 2 Cont\\'d(fast):
e|X-------XXX------X---------------------------|
b|X-------XXX------X---------------------------|
g|X-6-6--6XXX6-6--6X---------------------------|
d|X-6-6--6XXX6-6--6X-4-4--4~--4-4--4~--4-4--4~-|
a|X-4-4--4XXX4-4--4X-4-4--4~--4-4--4~--4-4--4~-|
e|X-------XXX------X-2-2--2~--2-2--2~--2-2--2~-|
P.M:                ....      ....     ....


Pre Chorus


Chorus


Interlude (slow): When the tables turn again.....
e|-------------------------------------------------|
b|-------------------------------------------6--2--|
g|-------0-------------0--------------0------------|
d|----6----6--------6-----6--------6------6--------|x3?
a|-4----------4--4-----------4--4------------------|
e|-------------------------------------------------|

Play Chorus

Finish
e|-----|
b|-----|
g|-6~~-|
d|-6~~-|
a|-4~~-|
e|-----|
5. Me Against The World
E|--------|-----------------------------------|
B|--------|-----------------------------------|
G|--------|-----------------------------------|
D|--------|-11-13-13-13-13---11-13-13-13-13---|
A|--------|-11-13-13-13-13---11-13-13-13-13---|
D|--------|-11-13-13-13-13---11-13-13-13-13---|

Guitar 2
     X1   |**
E|--------|-----------------------------------|
B|--------|-----------------------------------|
G|--------|-----------------------------------|
D|-12/1-1-|----------------1------------------|
A|-12/1-1-|----------------1------------------|
D|-12/1-1-|----------------1------------------|

Guitar 1(cont’d)
E|---------------------------------------|
B|---------------------------------------|
G|---------------------------------------|
D|---11-13-13-13-13---11-15-13-13-13-----|
A|---11-13-13-13-13---11-15-13-13-13-----|
D|---11-13-13-13-13---11-15-13-13-13-----|

Guitar 2(cont‘d)
E|---------------------------------------|
B|---------------------------------------|
G|---------------------------------------|
D|-4----------------6-------------12/1-1-|
A|-4----------------6-------------12/1-1-|
D|-4----------------6-------------12/1-1-|

Repeat intro from **

Verse 1:
Guitar 2
E|-----|
B|-----|
G|-----|
D|-1~~~|
A|-1~~~|
D|-1~~~|
  not

Guitar 1
E|---------|
B|-------7-|
G|---------|
D|-4-6-8---| x2
A|---------|
D|---------|
*hit the 4s on “taking” and “everyone’s”*

Pre-Chorus:
Guitar 1
E|----------------------------------------|
B|----------------------------------------|
G|----------------------------------------|
D|--------11-13-13-13-13---11-13-13-13-13-|
A|--------11-13-13-13-13---11-13-13-13-13-|
D|--------11-13-13-13-13---11-13-13-13-13-|

Guitar 2
E|----------------------------------------|
B|----------------------------------------|
G|----------------------------------------|
D|-12/1-1----------------1----------------|
A|-12/1-1----------------1----------------|
D|-12/1-1----------------1----------------|
  place                 run

Guitar 1(cont’d)
E|-----------------------------------|
B|-----------------------------------|
G|-----------------------------------|
D|---11-15-13-13-13---11-15-13-13-13-|
A|---11-15-13-13-13---11-15-13-13-13-|
D|---11-15-13-13-13---11-15-13-13-13-|

Guitar 2(cont‘d)
E|-----------------------------------|
B|-----------------------------------|
G|-----------------------------------|
D|-4----------------6----------------|
A|-4----------------6----------------|
D|-4----------------6----------------|
  fall             all

Chorus 1:
Guitars 1 and 2
E|------------------------------|
B|------------------------------|
G|------------------------------|
D|-1--1--1-1-1-1--9--9--9-9-9-9-|
A|-1--1--1-1-1-1--9--9--9-9-9-9-|
D|-1--1--1-1-1-1--9--9--9-9-9-9-|

E|--------------------------------------|
B|--------------------------------------|
G|--------------------------------------|
D|-4--4--4-4-4-11--11-11-11-11-11-11-11-|  x2
A|-4--4--4-4-4-11--11-11-11-11-11-11-11-|
D|-4--4--4-4-4-11--11-11-11-11-11-11-11-|

Chorus 2:
Guitar 2:
E|----------------------------|
B|----------------------------|
G|----------------------------|
D|-13-13-13-13-13-13-13-13-11-|
A|-13-13-13-13-13-13-13-13-11-|
D|-13-13-13-13-13-13-13-13-11-|

*not sure on Guitar 1 part here*

Fill 1:
Guitar 1
          |**
E|--------|-----------------------------------|
B|--------|-----------------------------------|
G|--------|-----------------------------------|
D|--------|-11-13-13-13-13---11-13-13-13-13---|
A|--------|-11-13-13-13-13---11-13-13-13-13---|
D|--------|-11-13-13-13-13---11-13-13-13-13---|

Guitar 2
     X1   |**
E|--------|-----------------------------------|
B|--------|-----------------------------------|
G|--------|-----------------------------------|
D|-12/1-1-|----------------1------------------|
A|-12/1-1-|----------------1------------------|
D|-12/1-1-|----------------1------------------|

Guitar 1(cont’d)
E|---------------------------------------|
B|---------------------------------------|
G|---------------------------------------|
D|---11-13-13-13-13---11-15-13-13-13-----|
A|---11-13-13-13-13---11-15-13-13-13-----|
D|---11-13-13-13-13---11-15-13-13-13-----|

Guitar 2(cont‘d)
E|---------------------------------------|
B|---------------------------------------|
G|---------------------------------------|
D|-4----------------6-------------12/1-1-|
A|-4----------------6-------------12/1-1-|
D|-4----------------6-------------12/1-1-|

Repeat fill from **

Fill 2:
Guitar 1 can play this instead of repeating the normal fill:
E|--------------|
B|-10~7~9~6~3~0~|
G|--------------|
D|--------------|
A|--------------|
E|--------------|

Verse 2:
Guitar 2(palm muted)
E|--------------------------|
B|--------------------------|
G|--------------------------|
D|-1-----9-----4-----11-----| x2
A|-1(x8)-9(x8)-4(x8)-11(x8)-|
D|-1-----9-----4-----11-----|

Guitar 1
same as verse 1

Chorus 1:
Guitars 1 and 2
E|------------------------------|
B|------------------------------|
G|------------------------------|
D|-1--1--1-1-1-1--9--9--9-9-9-9-|
A|-1--1--1-1-1-1--9--9--9-9-9-9-|
D|-1--1--1-1-1-1--9--9--9-9-9-9-|

E|--------------------------------------|
B|--------------------------------------|
G|--------------------------------------|
D|-4--4--4-4-4-11--11-11-11-11-11-11-11-|  x2
A|-4--4--4-4-4-11--11-11-11-11-11-11-11-|
D|-4--4--4-4-4-11--11-11-11-11-11-11-11-|

Chorus 3
Guitar 2:
E|------------------|
B|------------------|
G|------------------|
D|-13-------13~~11~~|
A|-13-(x16)-13~~11~~|
D|-13-------13~~11~~|

Pre-Bridge:
E|----------------------------------------|
B|----------------------------------------|
G|----------------------------------------|
D|----------------------------------------|
A|----------------------------------------|
D|-1(just strum w/palm mute until bridge)-|

Bridge:
Guitar 1 With Whammy Bar (listen for timing)
E|-------|
B|-6~5~0~|
G|-------|
D|-------|
A|-------|
E|-------|

Guitar 2
E|------------------------------------------------|
B|------------------------------------------------|
G|------------------------------------------------|
D|-4------6------13-13-11-13-13-11-13-13-11-13-13-|x2
A|-4-(x8)-6-(x8)-13-13-11-13-13-11-13-13-11-13-13-|
D|-4------6------13-13-11-13-13-11-13-13-11-13-13-|
	    (not sure on these notes, but they sound good)

E|----------------------------------|
B|----------------------------------|
G|----------------------------------|
D|-4------6------9------11-------11-|
A|-4-(x8)-6-(x8)-9-(x8)-11-(x9)--11-|
D|-4------6------9------11-------11-|

Chorus 1:
Guitar 1(whammy Bar)(listen for timing):
*not 100% sure on this part*
E|----------|
B|-10~7~9~5~|
G|----------|x2
D|----------|
A|----------|
E|----------|

Guitar 2
E|------------------------------|
B|------------------------------|
G|------------------------------|
D|-1--1--1-1-1-1--9--9--9-9-9-9-|
A|-1--1--1-1-1-1--9--9--9-9-9-9-|
D|-1--1--1-1-1-1--9--9--9-9-9-9-|

E|--------------------------------------|
B|--------------------------------------|
G|--------------------------------------|
D|-4--4--4-4-4-11--11-11-11-11-11-11-11-|  x2
A|-4--4--4-4-4-11--11-11-11-11-11-11-11-|
D|-4--4--4-4-4-11--11-11-11-11-11-11-11-|

Chorus 4
E|-----------------|
B|-----------------|
G|-----------------|
D|-13------11------|
A|-13-(x8)-11-(x8)-|
D|-13------11------|

Chorus 1:
Guitar 1(whammy Bar)(listen for timing):
*not 100% sure on this part*
E|----------|
B|-10~7~9~5~|
G|----------|x2
D|----------|
A|----------|
E|----------|

Guitar 2
E|------------------------------|
B|------------------------------|
G|------------------------------|
D|-1--1--1-1-1-1--9--9--9-9-9-9-|
A|-1--1--1-1-1-1--9--9--9-9-9-9-|
D|-1--1--1-1-1-1--9--9--9-9-9-9-|

E|--------------------------------------|
B|--------------------------------------|
G|--------------------------------------|
D|-4--4--4-4-4-11--11-11-11-11-11-11-11-|  x2
A|-4--4--4-4-4-11--11-11-11-11-11-11-11-|
D|-4--4--4-4-4-11--11-11-11-11-11-11-11-|

End Riff:
E|----------------------------------|
B|----------------------------------|
G|----------------------------------|
D|-5------7------9------11------1-1-|
A|-5-(x8)-7-(x8)-9-(x8)-11-(x8)-1-1-|
D|-5------7------9------11------1-1-|
6. Crazy
I---------------11----------|---------------11--------------------------|I
I--------11-----------11----|--------11------------11-------------------|I
I-----8------8-----8------8-|-----8------8------8------8----------------|I
I---8-----------------------|-10----------------------------------------|I
I---------------------------|-------------------------------------------|I
I---------------------------|-------------------------------------------|I
This is the main riff
I-----------------------------------------------------------------------|I
I-----------------------------------------------------------------------|I
I------5----------------------------------------------------------------|I
I--1---5---6---8--------------------------------------------------------|I
I--1---3---6---8--------------------------------------------------------|I
I--1-------6---8--------------------------------------------------------|I
The solo I'm not sure of either..somethin like this..
I-----------------------4h6--------------------------------------------------|I
I----------------------------------------------------------------------------|I
I--------------------3-------------------------------------------------------|I
I--3/5\\3------3\\5/3--------------------------------------------------------|I
I---------6------------------------------------------------------------------|I
I----------------------------------------------------------------------------|I
Then for the last verse when the key changes, play this...
I-----------------------------------------------------------------------|I
I-----------------------------------------------------------------------|I
I------7----------------------------------------------------------------|I
I--3---7---8---10-------------------------------------------------------|I
I--3---5---8---10-------------------------------------------------------|I
I--3-------8---10-------------------------------------------------------|I
7. Jump
Intro without distortion palm muted
E--------------------------------------------------|
A--------------------------------------------------|
D---5---5--5--5-5--5---5--5-5---5-5--5-5-----------|
G-----4---4--4----4--4---4----4-----4----4-4-------|
B--------------------------------------------------|
E--------------------------------------------------|

E--0-0---------0--0-0-----------0-0---------0-0-------|
A--2-2----7----2--2-2-----7-----2-2----7----2-2--7--7-|
D--2-2----9----2--2-2-----9-----2-2----9----2-2--9--7-|
G---------9---------------9------------9---------9--7-| x2
B-----------------------------------------------------|
E-----------------------------------------------------|

E------------------------------------0-0-------0-0------|
A-7-7--x-x--7-7--x-x--7-7--x-x--7----2-2---7---2-2--7-7-|
D-9-9--x-x--9-9--x-x--9-9--x-x--9----2-2---9---2-2--9-7-|
G-9-9--x-x--9-9--x-x--9-9--x-x--9----------9--------9-7-|
B-------------------------------------------------------|
E-------------------------------------------------------|

E--0-0---------0--0-0-----------0-0---------0-0--------|
A--2-2----7----2--2-2-----7-----2-2----7----2-2--7--7~-|
D--2-2----9----2--2-2-----9-----2-2----9----2-2--9--7~-|
G---------9---------------9------------9---------9--7~-|
B------------------------------------------------------|
E------------------------------------------------------|

E--------------------------------------------------|
A--------------------------------------------------|
D---5---5--5--5-5--5---5--5-5---5-5--5-5-----------|
G-----4---4--4----4--4---4----4-----4----4-4-------|
B--------------------------------------------------|
E--------------------------------------------------|

E------------------------------------------------------|
A--x-x--7---x-x--7---x-x--7---x-x--7---x-x--7---x-x--7-|
D--x-x--9---x-x--9---x-x--9---x-x--9---x-x--9---x-x--9-|
G--x-x--9---x-x--9---x-x--9---x-x--9---x-x--9---x-x--9-|
B------------------------------------------------------|
E------------------------------------------------------|

E--0-0---------0--0-0-----------0-0---------0-0--------|
A--2-2----7----2--2-2-----7-----2-2----7----2-2--7--7~-|
D--2-2----9----2--2-2-----9-----2-2----9----2-2--9--7~-|
G---------9---------------9------------9---------9--7~-|
B------------------------------------------------------|
E------------------------------------------------------|

E--0-0---------0--0-0-----------0-0---------0-0--------|
A--2-2----7----2--2-2-----7-----2-2----7----2-2--7--7~-|
D--2-2----9----2--2-2-----9-----2-2----9----2-2--9--7~-|
G---------9---------------9------------9---------9--7~-|
B------------------------------------------------------|
E------------------------------------------------------|

E--0-0---------0--0-0-----------0-0---------0-0--------|
A--2-2----7----2--2-2-----7-----2-2----7----2-2--7--7~-|
D--2-2----9----2--2-2-----9-----2-2----9----2-2--9--7~-|
G---------9---------------9------------9---------9--7~-|
B------------------------------------------------------|
E------------------------------------------------------|

E--0-0---------0--0-0-----------0-0---------0-0--------|
A--2-2----7----2--2-2-----7-----2-2----7----2-2--7--7~-|
D--2-2----9----2--2-2-----9-----2-2----9----2-2--9--7~-|
G---------9---------------9------------9---------9--7~-|
B------------------------------------------------------|
E------------------------------------------------------|

E---0-0----0-0----0-0----------|
A---2-2----2-2----2-2----------|
D---2-2----2-2----2-2----------|
G------------------------------|
B------------------------------|
E------------------------------|

Verse 2

E--------------------------------------------------|
A--------------------------------------------------|
D---5---5--5--5-5--5---5--5-5---5-5--5-5-----------|
G-----4---4--4----4--4---4----4-----4----4-4-------|
B--------------------------------------------------|
E--------------------------------------------------|

This the guitar tghat comes in during verse 2

E--------------------------------------------------|
A--------------------------------------------------|
D--------------------------------------------------|
G-4-4-4-4-4-4-4-4-4-4-4-4-6-6-6-6-6-6-6-6-6-6-6-6--|
B-6-6-6-6-6-6-6-6-6-6-6-6-8-8-8-8-8-8-8-8-8-8-8-8--|
E-6-6-6-6-6-6-6-6-6-6-6-6-8-8-8-8-8-8-8-8-8-8-8-8--|

Pre-Chorus

Chorus

E--0-0---------0--0-0-----------0-0---------0-0--------|
A--2-2----7----2--2-2-----7-----2-2----7----2-2--7--7~-|
D--2-2----9----2--2-2-----9-----2-2----9----2-2--9--7~-|
G---------9---------------9------------9---------9--7~-|
B------------------------------------------------------|
E------------------------------------------------------|

E--0-0---------0--0-0-----------0-0---------0-0--------|
A--2-2----7----2--2-2-----7-----2-2----7----2-2--7--7~-|
D--2-2----9----2--2-2-----9-----2-2----9----2-2--9--7~-|
G---------9---------------9------------9---------9--7~-|
B------------------------------------------------------|
E------------------------------------------------------|

E--0-0---------0--0-0-----------0-0---------0-0--------|
A--2-2----7----2--2-2-----7-----2-2----7----2-2--7--7~-|
D--2-2----9----2--2-2-----9-----2-2----9----2-2--9--7~-|
G---------9---------------9------------9---------9--7~-|
B------------------------------------------------------|
E------------------------------------------------------|

E--0-0---------0--0-0-----------0-0---------0-0--------|
A--2-2----7----2--2-2-----7-----2-2----7----2-2--7--7~-|
D--2-2----9----2--2-2-----9-----2-2----9----2-2--9--7~-|
G---------9---------------9------------9---------9--7~-|
B------------------------------------------------------|
E------------------------------------------------------|

E---------------3~---|
A------5--------5~---|
D------7--------5~---|
G------7-------------| x2
B--------------------|
E--------------------|

E-------------------------------------------------------|
A-4-4-4-4-4-4-4-4-4-4-4-4-4-4-4-6-6-6-6-6-6-6-6-6-6-6-6-|
D-6-6-6-6-6-6-6-6-6-6-6-6-6-6-6-8-8-8-8-8-8-8-8-8-8-8-8-|
G-6-6-6-6-6-6-6-6-6-6-6-6-6-6-6-8-8-8-8-8-8-8-8-8-8-8-8-| x2
B-------------------------------------------------------|
E-------------------------------------------------------|

E--------------------------------------------------|
A--------------------------------------------------|
D---5---5--5--5-5--5---5--5-5---5-5--5-5-----------|
G-----4---4--4----4--4---4----4-----4----4-4-------|
B--------------------------------------------------|
E--------------------------------------------------|

Chorus
E--0-0---------0--0-0-----------0-0---------0-0--------|
A--2-2----7----2--2-2-----7-----2-2----7----2-2--7--7~-|
D--2-2----9----2--2-2-----9-----2-2----9----2-2--9--7~-|
G---------9---------------9------------9---------9--7~-|
B------------------------------------------------------|
E------------------------------------------------------|

"Jump, I just dont care tonight, I  just  wanna  jump

E--0-0---------0--0-0-----------0-0---------0-0--------|
A--2-2----7----2--2-2-----7-----2-2----7----2-2--7--7~-|
D--2-2----9----2--2-2-----9-----2-2----9----2-2--9--7~-|
G---------9---------------9------------9---------9--7~-|
B------------------------------------------------------|
E------------------------------------------------------|

E--0-0---------0--0-0-----------0-0---------0-0--------|
A--2-2----7----2--2-2-----7-----2-2----7----2-2--7--7~-|
D--2-2----9----2--2-2-----9-----2-2----9----2-2--9--7~-|
G---------9---------------9------------9---------9--7~-|
B------------------------------------------------------|
E------------------------------------------------------|

E--0-0---------0--0-0-----------0-0---------0-0--------|
A--2-2----7----2--2-2-----7-----2-2----7----2-2--7--7~-|
D--2-2----9----2--2-2-----9-----2-2----9----2-2--9--7~-|
G---------9---------------9------------9---------9--7~-|
B------------------------------------------------------|
E------------------------------------------------------|

E--0-0---------0--0-0-----------0-0---------0-0--------|
A--2-2----7----2--2-2-----7-----2-2----7----2-2--7--7~-|
D--2-2----9----2--2-2-----9-----2-2----9----2-2--9--7~-|
G---------9---------------9------------9---------9--7~-|
B------------------------------------------------------|
E------------------------------------------------------|

E--0-0---------0--0-0-----------0-0---------0-0---------|
A--2-2----7----2--2-2-----7-----2-2----7----2-2--7--7~--|
D--2-2----9----2--2-2-----9-----2-2----9----2-2--9--7~--|
G---------9---------------9------------9---------9--7~--| x2
B-------------------------------------------------------|
E-------------------------------------------------------|

E--0-0---------0--0-0-----------0-0---------0-0--------|
A--2-2----7----2--2-2-----7-----2-2----7----2-2--7--7~-|
D--2-2----9----2--2-2-----9-----2-2----9----2-2--9--7~-|
G---------9---------------9------------9---------9--7~-|
B------------------------------------------------------|
E------------------------------------------------------|
8. Everytime
Capo On 1st

Verse:
       C
It was 3 a.m. when you woke me up
        Am                                             F
Then we jumped in the car and drove as far as we could go
            G
Just to get away
          C
We talked about our lives until the sun came up
        Am                                   F
And now thinking about how i wish i could go back
                  G
Just for one more day
                  C
One more day with you


Chorus:
C
Everytime i see your face
Am
Everytime you look my way
F
It's like it all falls into place
G
Everything feels right
C
Ever since you walked away
Am
You left my life in disarray
F
All i want is one more day
G                                   C
Cuz all i need is one more day with you


Verse:
C
When the car broke down

We just kept walking along
        Am
Till it hit this town
                           F
There was nothing there at all
                 G
But that was all ok
         C
We spent all our money on stupid things
         Am                                   F
But if i look back now id probly give it all away,
                  G
Just for one more day
                  C
One more day with you

Chorus:
C
Everytime i see your face
Am
Everytime you look my way
F
Its like it all falls into place
G
Everything feels right
C
Ever since you walked away
Am
You left my life in disarray
F
All i want is one more day
G
Its all i need
                  F
One more day with you


Solo: F - Am - C/B - C - G - - - F - Am - C/B - C - G - - - C

Verse:
       C
Now im sitting here

Like we used to do
        Am
I think about my life
                               F
And now there's nothin i won't do
                  G
Just for one more day
                    C
One more day with you

Chorus:
C
Everytime i see your face
Am
Everytime you look my way
F
Its like it all falls into place
G                             C
Everything feels right (feels right)
C
Evertime i here ur name
Am
Everytime i feel the same
F
Its like it all falls into place
G                            C
Everything, everything feels right
            Am                F
You walked away just one more day
  G                                C
Is all i need is one more day with you.

9. Promise
This is Drop D tuning
|----------------------------------------|------------------------|
|----------------------------------------|------------------------|
|---6-66-666-6-66-666-6-66-666-8-10-8-10-|------8-10-8-10-6\------|
|---x-xx-xxx-x-xx-xxx-x-xx-xxx-x--x-x--x-|------6--8-6--8-4\------|
|---4-44-444-4-44-444-4-44-444-6--8-6--8-|------6--8-6--8-4\------|
|----------------------------------------|------------------------|

intro part 2
Gt.1 x2                               Gt.2 x2
|---------------------------------|--------------------------------|
|---------------------------------|--------------------------------|
|---6666666666--------------------|-66-8-8/10----8-10-8-10---------|
|---6666666666-44444-66x-66x------|-xx-x-x--x-x3-x--x-x--x---------|
|---4444444444-44444-66x-66x------|-44-6-6/-8----6--8-6--8---------|
|--------------44444-66x-66x------|--------------------------------|

fill dont play last part of each gt in intro part 2 play this
Gt.1                                Gt.2
|---------------------------------|--------------------------------|
|---------------------------------|--------------------------------|
|---------------------------------|---888-10-8-6-------------------|
|---6-6-6-------------------------|---xxx--x-x-x-------------------|
|---6-6-6-------------------------|---666--8-6-4-------------------|
|---6-6-6-------------------------|--------------------------------|

verse 1 is same as intro part 1

prechorus
Both Guitars
|------------------------------------------------------------------|
|------------------------------------------------------------------|
|---66666-------66666------------66666-----------------------------|
|---66666-44444-66666-66666------66666-66666-4~--6-6-6-------------|
|---44444-44444-44444-66666------44444-66666-4~--6-6-6-------------|
|---------44444-------66666------------66666-4~--6-6-6-------------|

chorus x2
Gt.1                               Gt.2
|------------------------------------|-------------------------------------|
|------------------------------------|-------------------------------------|
|-6666-6666--------------------------|-6666-6666-8888-8888-88-88-66-66-8---|
|-6666-6666-6666-6666-11x11x-44-44-6-|-6666-6666-8888-8888-88-88-66-66-8---|
|-4444-4444-6666-6666-11x11x-44-44-6-|-4444-4444-6666-6666-66-66-44-44-6---|
|-----------6666-6666-11x11x-44-44-6-|-------------------------------------|

intro part 2 and fill
verse 2
Gt.1 x2                                Gt.2 comes in on 2nd time through
|------------------------------------|--9---9---9---9---9------------------|
|------------------------------------|----9---9---9---9---8-10-8-10--------|
|--66-66-66-6-66-8-10-8-10-----------|--------------------8-10-8-10--------|
|--66-66-66-6-66-8-10-8-10-----------|--------------------6--8-6--8--------|
|--44-44-44-4-44-6--8-6--8-----------|-------------------------------------|
|------------------------------------|-------------------------------------|

prechorus
chorus

bridge
Gt.1
|------------------------------------------------------------|
|------------------------------------------------------------|
|---6~--6~--6~---6~---6~---6~-----6-6666---------------------|
|---6~--6~--6~-6~6~-6~6~-6~6~-6~--6-6666-4-4444-66-66-66-xx--|
|---4~--4~--4~-6~4~-6~4~-6~4~-6~--4-4444-4-4444-66-66-66-xx--|
|--------------6~---6~---6~---6~---------4-4444-66-66-66-xx--|
                                    ....   ....
Gt.2
|-----------9-8-------9-8------9-11-8-9---9-8----------------|
|---------------9\7-------9-7-----------------9-7------------|
|------------------------------------------------------------|
|------------------------------------------------------------|
|------------------------------------------------------------|
|------------------------------------------------------------|

solo
Gt. 1 x2
|------------------------------------------------------------|
|------------------------------------------------------------|
|----------------666666--------------------------------------|
|---888888-44444-666666-66666-888888-666666-444444-----------|
|---888888-44444-444444-66666-888888-666666-444444-----------|
|---888888-44444--------66666-888888-666666-444444-----------|

im still working on gt.2 solo but to give you an idea for now its in b flat
heres what i know of the solo its the first 32 parts for Gt. 2 all i have
left is the last part of it

|------------------6------------------------6----------------|
|---6--6--6--------6---------------8-6--------9b-9b----------|
|---8b-8b-8b-8-6---6-------------6-8-6-8--8b-----------------|
|----------------8---8-------6-8-----------------------------|
|------------------------/8----------------------------------|
|------------------------------------------------------------|

|-----------------------------------------6---6-9-6-9--------|
|---------------------------------6-9-6-9---9----------------|
|---------------------6---6-8-6-8----------------------------|
|---------6---6-8-6-8---8------------------------------------|
|---8-6-8---8------------------------------------------------|
|------------------------------------------------------------|

|---11b-11b-11r-9-112-9---14-13-11-9-------------------------|
|------------------------------------11-9--------------------|
|-----------------------------------------10-8---------------|
|------------------------------------------------------------|
|------------------------------------------------------------|
|------------------------------------------------------------|
new chorus
Gt.1
|--------------------------------|---9-9-----------------------------------|
|--------------------------------|-----------------------------------------|
|---66---------------------------|------------88888--111111-101010---------|
|---66--66---11---44-44-6xxx-----|--------66--88888--111111-101010--44-44-6|
|---44--66---11---44-44-6xxx-----|--------66--66666---99999--88888--44-44-6|
|-------66---11---44-44-6xxx-----|--------66------------------------44-44-6|

plays first chorus once
then gt.1 plays normal chorus while gt.2 plays the intro part 2

both guitars end on
|-------------|
|-------------|
|---6-6-------|
|---6-6-------|
|---4-4-------|
|-------------|
10. One
Intro

E|------------------------------------------------||
B|------------------------------------------------||
G|--6-6-6-6---------------------------------------||
D|--6-6-6-6--6-6-6-6--4-4-4-4--4-4-4--4-6---------||
A|--4-4-4-4--6-6-6-6--4-4-4-4--4-4-4--4-6---------||
E|-----------4-4-4-4--2-2-2-2--2-2-2--2-4---------||

Verse

E|----------------------------------------------------||
B|----------------------------------------------------||
G|--6-6-6--6-6-6--------------------------------------||
D|--6-6-6--6-6-6--4-4-4--4-4-4------------------------||
A|--4-4-4--4-4-4--4-4-4--4-4-4------------------------||
E|----------------2-2-2--2-2-2------------------------||
    . . .  . . .  . . .  . . .

Pre Chorus
   ''we're the voice in your head...''
E|------------------------------------------------||
B|------------------------------------------------||
G|---------------------------------6--------------||
D|-8-8-8--6-6-6--4-4-4--4-4-4--4-6-6--------------||
A|-8-8-8--6-6-6--4-4-4--4-4-4--4-6-4--------------||
E|-6-6-6--4-4-4--2-2-2--2-2-2--2-4----------------||
   . . .  . . .  . . .  . . .

Chorus

E|------------------------------------||
B|------------------------------------||
G|-6-6-6-6-6-6-6-6--------------------||
D|-6-6-6-6-6-6-6-6--6-6-6-6-6-6-6-6---||
A|-4-4-4-4-4-4-4-4--6-6-6-6-6-6-6-6---||
E|------------------4-4-4-4-4-4-4-4---||

E|------------------------------------------------||
B|------------------------------------------------||
G|------------------------------------------------||
D|-4-4-4-4-4-4-4-4--4-4-4-4-4-4-6-6---------------||
A|-4-4-4-4-4-4-4-4--4-4-4-4-4-4-6-6---------------||
E|-2-2-2-2-2-2-2-2--2-2-2-2-2-2-4-4---------------||
11. Untitled
You could play it this way if it is easier
eb|--------------------------------------7h9p7-----------------------|
Bb|--------------------------11b-9h11p9~-------7~--------------------|
Gb|---0h2h4-2-0-2~-0h2h4-7-9---------------------7-7/9\\7------------|
Db|-0~---------------------------------------------7/9\\7------------|
Ab|------------------------------------------------------------------|
Eb|------------------------------------------------------------------|
comments
print report bad tab
I want to post or [tab]
guest
You may want to rate the tab now too:
select rating
Please do not post tabs as comments. Select "correction" instead!