Oops, an error
Loading. Please wait.

When Im Gone Tab

ver1
ver1

Whole song

Interactive

More versions @911Tabs.com
31,512 views 33 this week
6 commentsread comments
1 2 3 4 5
worth learning
x 12
Autoscroll
+/-
esc
set tempo
stop
Difficulty
novice
Hey! There's an official Ultimate Guitar app which is ideal
for learning songs when you're away from computer. Get the app
WARNING: You are trying to view
                                    content from Ultimate-Guitar.com
                                    in an unauthorized application,
                                    which is prohibited.

                                    Please use an official Ultimate
                                    Guitar Tabs application for iPhone,
                                    iPad or Android to access legitimate
                                    chords, guitar, bass, and drum tabs
                                    from Ultimate-Guitar.com database.

                                    Type "ultimate guitar tabs" in Apple
                                    App Store's or Android Market's
                                    search to find the application.
WHEN I'M GONE - SIMPLE PLAN

(New Song)

this is my first tab here, im sure its 99,9% correct and its sounds good for me.

Verse : I look around me..

------------------------------------------------|
------------------------------------------------|
------------------------------------------------|
--------8--5------------------------------------|
--5--8--6--3------------------------------------|
--3--6------------------------------------------|


Chorus: Whoahh no we're not gonna waste another moment in this town..

-------------------|
-------------------|
-------------------| x3
--8----------------|
--6--8--5--3-------|
-----6--3--1-------|

then change here --> And misery loves company..

---------------------------|
---------------------------|
---------------------------|
-8-----5-------------------|
-6--8--3-----5-------------|
----6--------3-------------|

-> You're gonna miss me when i'm gone..

-----------------|
-----------------|
-----------------|
------8-5--------|
--5-8-6-3--------|
--3-6------------|


Repeat verse

Let's go! Wont look back..

------------------------------------------------|
------------------------------------------------|
------------------------------------------------|
--------8--5------------------------------------|
--5--8--6--3------------------------------------|
--3--6------------------------------------------|


Chorus

Chorus: Whoahh no we're not gonna waste another moment in this town..

-------------------|
-------------------|
-------------------| x3
--8----------------|
--6--8--5--3-------|
-----6--3--1-------|

then change here --> And misery loves company..

---------------------------|
---------------------------|
---------------------------|
-8-----5-------------------|
-6--8--3-----5-------------|
----6--------3-------------|

-> You're gonna miss me when i'm gone..

-----------------|
-----------------|
-----------------|
------8-5--------|
--5-8-6-3--------|
--3-6------------|

Enjoy =)


I look around me
But all I seem to see
Is people going nowhere
Expecting sympathy
It’s like we’re going through the motions
Of the scripted destiny
Tell me where’s our inspiration
If life wont wait
I guess it’s up to me


Whoahh
No we’re not gonna waste another moment in this town
Whoahh
We wont come back, the world its coming out
Whoahh
Leave the past in the past gonna find the future
And misery loves company
Well so long
You’ll miss me when I’m gone
You’re gonna miss me when I’m gone


Procrastination running circles in my head
While you sit there contemplating you’ll wind up left for dead (left for dead)
Life is what happens
While you’re busy making your excuses
Another day, another casualty
But that won’t happen to me


Whoahh
No we’re not gonna waste another moment in this town
Whoahh
We wont come back, the world its coming out


Whoahh
Leave the past in the past gonna find the future
And misery loves company
Well so long
You’ll miss me when I’m gone
You’re gonna miss me when I’m gone
You’re gonna miss me when I’m gone
When I’m gone


Let’s go…!
Won’t look back
When I say goodbye
We’re gonna leave this world behind me
Gonna take what’s mine tonight
‘cause every wasted day
Becomes a wasted chance
You’re gonna wake up feeling sorry
‘cause life won’t wait
I guess it’s up to you


Whoahh
No we’re not gonna waste another moment in this town
Whoahh
We wont come back, the world its coming out
Whoahh
Leave the past in the past gonna find the future
And misery loves company
Well so long
You’ll miss me when I’m gone
You’re gonna miss me when I’m gone
You’re gonna miss me when I’m gone
You’re gonna miss me when I’m gone
You’re gonna miss me when I’m gone


e-mail --> heartxcore@hotmail.it
comments
print report bad tab
6 comments total. Showing first comments.
0 reply
ritalinkid wrote on November 5 2007, 10:12 pm

Um...not right...
And wrong lyrics...

0 reply
yamaha182 wrote on November 21 2007, 11:37 pm

heeey weres the solo???

+1 reply
ritalinkid wrote on November 28 2007, 06:05 pm

There is no solo in this song. I submitted a PERFECT version of this song a few days ago, but it was rejected. How lame.
So I really can't be bothered to make one all over again unless you guys really want me to. If you want me to, then just
request it on my profile, and I'll redo it...Then again, it is a pretty easy song, so you may not need it..lol...

I want to post or [tab]
guest
You may want to rate the tab now too:
select rating
Please do not post tabs as comments. Select "correction" instead!