Oops, an error
Loading. Please wait.

Your Love Is A Lie Tab

ver5
ver5
More versions @911Tabs.com
1,141 views 1 this week
no commentswrite comment
1 2 3 4 5
worth learning
x 2
Autoscroll
+/-
esc
set tempo
stop
Contributor
Difficulty
Tuning
intermediate
D A D G B E
WARNING: You are trying to view
                                    content from Ultimate-Guitar.com
                                    in an unauthorized application,
                                    which is prohibited.

                                    Please use an official Ultimate
                                    Guitar Tabs application for iPhone,
                                    iPad or Android to access legitimate
                                    chords, guitar, bass, and drum tabs
                                    from Ultimate-Guitar.com database.

                                    Type "ultimate guitar tabs" in Apple
                                    App Store's or Android Market's
                                    search to find the application.
Your Love is A Lie
Simple Plan
Simple Plan (2008)

Your Love is A Lie:  written by Pierre Bouvier and Chuck Comeau

NOTE:  The solo is rough, but it seems alright.

GTR I - Drop D Tuning w. Capo 1st Fret "Acoustic" (f,C,Ab,Eb,Bb,Eb)
GTR II - Drop D Tuning w. Capo 1st Fret "Electric" (f,C,Ab,Eb,Bb,Eb)
GTR III - Drop D Tuning w. Capo 1st Fret "Electric" (f,C,Ab,Eb,Bb,Eb)

Intro

  GTR I
 f|--------------0----------------------------------|
 C|-----------------0-----0-----------4-------------|
Ab|-----------0--------0-----------0----------------|
Eb|--------3--------------------0-------------------|
Bb|-------------------------------------------------|
Eb|-----3--------------------6----------------------|

  GTR I
 f|-------------------------------------------------|
 C|--------------4--------------------3-------------|
Ab|-----------3-----3--0-----------3----------------|
Eb|--------0--------------0-----3-------------------|
Bb|--------------------------0----------------------|
Eb|-----0-------------------------------------------|

  GTR I
 f|--------------0----------------------------------|
 C|-----------------0-----0-----------4-------------|
Ab|-----------0--------0-----------0----------------|
Eb|--------3--------------------0-------------------|
Bb|-------------------------------------------------|
Eb|-----3--------------------6----------------------|

  GTR I
 f|-------------------------------------------------|
 C|--------------4--------------------3-------------|
Ab|-----------3-----3--0-----------3----------------|
Eb|--------0--------------0-----3-------------------|
Bb|--------------------------0----------------------|
Eb|-----0-------------------------------------------|

Verse

  GTR I
 f|--------------0----------------------------------|
 C|-----------------0-----0-----------4-------------|
Ab|-----------0--------0-----------0----------------|
Eb|--------3--------------------0-------------------|
Bb|-------------------------------------------------|
Eb|-----3--------------------6----------------------|

  GTR I
 f|-------------------------------------------------|
 C|--------------4--------------------3-------------|
Ab|-----------3-----3--0-----------3----------------|
Eb|--------0--------------0-----3-------------------|
Bb|--------------------------0----------------------|
Eb|-----0-------------------------------------------|

  GTR I
 f|--------------0----------------------------------|
 C|-----------------0-----0-----------4-------------|
Ab|-----------0--------0-----------0----------------|
Eb|--------3--------------------0-------------------|
Bb|-------------------------------------------------|
Eb|-----3--------------------6----------------------|

  GTR I
 f|-------------------------------------------------|
 C|--------------4--------------------3-------------|
Ab|-----------3-----3--0-----------3----------------|
Eb|--------0--------------0-----3-------------------|
Bb|--------------------------0----------------------|
Eb|-----0-------------------------------------------|

  GTR I
 f|--------------0----------------------------------|
 C|-----------------0-----0-----------4-------------|
Ab|-----------0--------0-----------0----------------|
Eb|--------3--------------------0-------------------|
Bb|-------------------------------------------------|
Eb|-----3--------------------6----------------------|

  GTR I
 f|-------------------------------------------------|
 C|--------------4--------------------3-------------|
Ab|-----------3-----3--0-----------3----------------|
Eb|--------0--------------0-----3-------------------|
Bb|--------------------------0----------------------|
Eb|-----0-------------------------------------------|

  GTR I
 f|--------------0----------------------------------|
 C|-----------------0-----0-----------4-------------|
Ab|-----------0--------0-----------0----------------|
Eb|--------3--------------------0-------------------|
Bb|-------------------------------------------------|
Eb|-----3--------------------6----------------------|

  GTR I
 f|-------------------------------------------------|
 C|--------------4--------------------3-------------|
Ab|-----------3-----3--0-----------3----------------|
Eb|--------0--------------0-----3-------------------|
Bb|--------------------------0----------------------|
Eb|-----0-------------------------------------------|
  |
  |GTR II
 f|-------------------------------------------------|
 C|-------------------------------------------------|
Ab|-------------------------------------------------|
Eb|--------------------------------------------x--x-|
Bb|--------------------------------------------x--x-|
Eb|--------------------------------------------x--x-|

Pre Chorus

  GTR II
 f|-------------------------------------------------|
 C|-------------------------------------------------|
Ab|-------------------------------------------------|
Eb|--6----------------------------------------------|
Bb|--6----------------------------------------------|
Eb|--6----------------------------------------------|
  |
  |GTR III
 f|-------------------------------------------------|
 C|--9--9--9--9--8--8--8--8--9--9--9--9-11-11-11-11-|
Ab|--8--8--8--8--8--8--8--8--8--8--8--8-10-10-10-10-|
Eb|-------------------------------------------------|
Bb|-------------------------------------------------|
Eb|-------------------------------------------------|

  GTR II
 f|-------------------------------------------------|
 C|-------------------------------------------------|
Ab|--3----------------------------------------------|
Eb|--3----------------------------------------------|
Bb|--0----------------------------------------------|
Eb|-------------------------------------------------|
  |
  |GTR III
 f|-------------------------------------------------|
 C|--9--9--9--9--8--8--8--8--9--9--9--9--8--8--8--8-|
Ab|--8--8--8--8--8--8--8--8--8--8--8--8--8--8--8--8-|
Eb|-------------------------------------------------|
Bb|-------------------------------------------------|
Eb|-------------------------------------------------|

  GTR II
 f|-------------------------------------------------|
 C|-------------------------------------------------|
Ab|-------------------------------------------------|
Eb|--6----------------------------------------------|
Bb|--6----------------------------------------------|
Eb|--6----------------------------------------------|
  |
  |GTR III
 f|-------------------------------------------------|
 C|--9--9--9--9--8--8--8--8--9--9--9--9-11-11-11-11-|
Ab|--8--8--8--8--8--8--8--8--8--8--8--8-10-10-10-10-|
Eb|-------------------------------------------------|
Bb|-------------------------------------------------|
Eb|-------------------------------------------------|

  GTR II
 f|-------------------------------------------------|
 C|-------------------------------------------------|
Ab|--5----------------------------------------------|
Eb|--5----------------------------------------------|
Bb|--3----------------------------------------------|
Eb|-------------------------------------------------|
  |
  |GTR III
 f|-------------------------------------------------|
 C|-13-13-13-13-13-13-13-13-16-16-16-16-16-16-16-16-|
Ab|-12-12-12-12-12-12-12-12-15-15-15-15-15-15-15-15-|
Eb|-------------------------------------------------|
Bb|-------------------------------------------------|
Eb|-------------------------------------------------|

Chorus

  GTR I
 f|--0-----0-----0-----0--0--4-----4-----4-----4--4-|
 C|--0-----0-----0-----0--0--4-----4-----4-----4--4-|
Ab|--0-----0-----0-----0--0--x-----x-----x-----x--x-|
Eb|--3-----3-----3-----3--3--6-----6-----6-----6--6-|
Bb|--3-----3-----3-----3--3--6-----6-----6-----6--6-|
Eb|--3-----3-----3-----3--3--6-----6-----6-----6--6-|
  |
  |GTR II,III
 f|-------------------------------------------------|
 C|-------------------------------------------------|
Ab|-------------------------------------------------|
Eb|--3-----3-----3-----3--3--6-----6-----6-----6--6-|
Bb|--3-----3-----3-----3--3--6-----6-----6-----6--6-|
Eb|--3-----3-----3-----3--3--6-----6-----6-----6--6-|

  GTR I
 f|--0-----0-----0-----0--0--0-----0-----0-----0--0-|
 C|--4-----4-----4-----4--4--x-----x-----x-----x--x-|
Ab|--3-----3-----3-----3--3--3-----3-----3-----3--3-|
Eb|--0-----0-----0-----0--0--3-----3-----3-----3--3-|
Bb|--0-----0-----0-----0--0--0-----0-----0-----0--0-|
Eb|--0-----0-----0-----0--0-------------------------|
  |
  |GTR II,III
 f|-------------------------------------------------|
 C|-------------------------------------------------|
Ab|--------------------------3-----3-----3-----3--3-|
Eb|--0-----0-----0-----0--0--3-----3-----3-----3--3-|
Bb|--0-----0-----0-----0--0--0-----0-----0-----0--0-|
Eb|--0-----0-----0-----0--0-------------------------|

  GTR I
 f|--0-----0-----0-----0--0--4-----4-----4-----4--4-|
 C|--0-----0-----0-----0--0--4-----4-----4-----4--4-|
Ab|--0-----0-----0-----0--0--x-----x-----x-----x--x-|
Eb|--3-----3-----3-----3--3--6-----6-----6-----6--6-|
Bb|--3-----3-----3-----3--3--6-----6-----6-----6--6-|
Eb|--3-----3-----3-----3--3--6-----6-----6-----6--6-|
  |
  |GTR II,III
 f|-------------------------------------------------|
 C|-------------------------------------------------|
Ab|-------------------------------------------------|
Eb|--3-----3-----3-----3--3--6-----6-----6-----6--6-|
Bb|--3-----3-----3-----3--3--6-----6-----6-----6--6-|
Eb|--3-----3-----3-----3--3--6-----6-----6-----6--6-|

  GTR I
 f|--0-----0-----0-----0--0--0-----0-----0-----0--0-|
 C|--4-----4-----4-----4--4--x-----x-----x-----x--x-|
Ab|--3-----3-----3-----3--3--3-----3-----3-----3--3-|
Eb|--0-----0-----0-----0--0--3-----3-----3-----3--3-|
Bb|--0-----0-----0-----0--0--0-----0-----0-----0--0-|
Eb|--0-----0-----0-----0--0-------------------------|
  |
  |GTR II,III
 f|-------------------------------------------------|
 C|-------------------------------------------------|
Ab|--------------------------3-----3-----3-----3--3-|
Eb|--0-----0-----0-----0--0--3-----3-----3-----3--3-|
Bb|--0-----0-----0-----0--0--0-----0-----0-----0--0-|
Eb|--0-----0-----0-----0--0-------------------------|

  GTR I
 f|--4-----4-----4-----4--4--4-----4-----4-----4--4-|
 C|--4-----4-----4-----4--4--4-----4-----4-----4--4-|
Ab|--6-----6-----6-----6--6--x-----x-----x-----x--x-|
Eb|--6-----6-----6-----6--6--6-----6-----6-----6--6-|
Bb|--4-----4-----4-----4--4--6-----6-----6-----6--6-|
Eb|--------------------------6-----6-----6-----6--6-|
  |
  |GTR II,III
 f|-------------------------------------------------|
 C|-------------------------------------------------|
Ab|--6-----6-----6-----6--6-------------------------|
Eb|--6-----6-----6-----6--6--6-----6-----6-----6--6-|
Bb|--4-----4-----4-----4--4--6-----6-----6-----6--6-|
Eb|--------------------------6-----6-----6-----6--6-|

  GTR I
 f|--0-----0-----0-----0--0--0-----0-----0-----0--0-|
 C|--4-----4-----4-----4--4--x-----x-----x-----x--x-|
Ab|--3-----3-----3-----3--3--3-----3-----3-----3--3-|
Eb|--0-----0-----0-----0--0--3-----3-----3-----3--3-|
Bb|--0-----0-----0-----0--0--0-----0-----0-----0--0-|
Eb|--0-----0-----0-----0--0-------------------------|
  |
  |GTR II,III
 f|-------------------------------------------------|
 C|-------------------------------------------------|
Ab|--------------------------3-----3-----3-----3--3-|
Eb|--0-----0-----0-----0--0--3-----3-----3-----3--3-|
Bb|--0-----0-----0-----0--0--0-----0-----0-----0--0-|
Eb|--0-----0-----0-----0--0-------------------------|

  GTR I
 f|--4-----4-----4-----4--4--4-----4-----4-----4--4-|
 C|--4-----4-----4-----4--4--4-----4-----4-----4--4-|
Ab|--6-----6-----6-----6--6--6-----6-----6-----6--6-|
Eb|--6-----6-----6-----6--6--6-----6-----6-----6--6-|
Bb|--4-----4-----4-----4--4--4-----4-----4-----4--4-|
Eb|-------------------------------------------------|
  |
  |GTR II,III
 f|-------------------------------------------------|
 C|-------------------------------------------------|
Ab|--6-----6-----6-----6--6--6-----6-----6-----6--6-|
Eb|--6-----6-----6-----6--6--6-----6-----6-----6--6-|
Bb|--4-----4-----4-----4--4--4-----4-----4-----4--4-|
Eb|-------------------------------------------------|

  GTR I
 f|--0-----0-----0-----0--0--0-----0-----0-----0--0-|
 C|--4-----4-----4-----4--4--4-----4-----4-----4--4-|
Ab|--3-----3-----3-----3--3--3-----3-----3-----3--3-|
Eb|--0-----0-----0-----0--0--0-----0-----0-----0--0-|
Bb|--0-----0-----0-----0--0--0-----0-----0-----0--0-|
Eb|--0-----0-----0-----0--0--0-----0-----0-----0--0-|
  |
  |GTR II,III
 f|-------------------------------------------------|
 C|-------------------------------------------------|
Ab|--8-----8-----8-----8--8--8-----8-----8-----8--8-|
Eb|--8-----8-----8-----8--8--8-----8-----8-----8--8-|
Bb|--6-----6-----6-----6--6--6-----6-----6-----6--6-|
Eb|-------------------------------------------------|

Post Chorus

  GTR I
 f|--------------0----------------------------------|
 C|-----------------0-----0-----------4-------------|
Ab|-----------0--------0-----------0----------------|
Eb|--------3--------------------0-------------------|
Bb|-------------------------------------------------|
Eb|-----3--------------------6----------------------|

  GTR I
 f|-------------------------------------------------|
 C|--------------4--------------------3-------------|
Ab|-----------3-----3--0-----------3----------------|
Eb|--------0--------------0-----3-------------------|
Bb|--------------------------0----------------------|
Eb|-----0-------------------------------------------|

  GTR I
 f|--------------0----------------------------------|
 C|-----------------0-----0-----------4-------------|
Ab|-----------0--------0-----------0----------------|
Eb|--------3--------------------0-------------------|
Bb|-------------------------------------------------|
Eb|-----3--------------------6----------------------|

  GTR I
 f|-------------------------------------------------|
 C|--------------4--------------------3-------------|
Ab|-----------3-----3--0-----------3----------------|
Eb|--------0--------------0-----3-------------------|
Bb|--------------------------0----------------------|
Eb|-----0-------------------------------------------|

Verse 2

  GTR I
 f|--------------0----------------------------------|
 C|-----------------0-----0-----------4-------------|
Ab|-----------0--------0-----------0----------------|
Eb|--------3--------------------0-------------------|
Bb|-------------------------------------------------|
Eb|-----3--------------------6----------------------|
  |
  |GTR II
 f|-15----------11----------------------------------|
 C|-------------------------13----------16----------|
Ab|-------------------------------------------------|
Eb|-------------------------------------------------|
Bb|-------------------------------------------------|
Eb|-------------------------------------------------|

  GTR I
 f|-------------------------------------------------|
 C|--------------4--------------------3-------------|
Ab|-----------3-----3--0-----------3----------------|
Eb|--------0--------------0-----3-------------------|
Bb|--------------------------0----------------------|
Eb|-----0-------------------------------------------|
  |
  |GTR II
 f|-------------------------------------------------|
 C|-11----------------------------11-13-11----9-----|
Ab|-------------------------------------------------|
Eb|-------------------------------------------------|
Bb|-------------------------------------------------|
Eb|-------------------------------------------------|

  GTR I
 f|--------------0----------------------------------|
 C|-----------------0-----0-----------4-------------|
Ab|-----------0--------0-----------0----------------|
Eb|--------3--------------------0-------------------|
Bb|-------------------------------------------------|
Eb|-----3--------------------6----------------------|
  |
  |GTR II
 f|-15----------11----------------------------------|
 C|-------------------------13----------16----------|
Ab|-------------------------------------------------|
Eb|-------------------------------------------------|
Bb|-------------------------------------------------|
Eb|-------------------------------------------------|

  GTR I
 f|-------------------------------------------------|
 C|--------------4--------------------3-------------|
Ab|-----------3-----3--0-----------3----------------|
Eb|--------0--------------0-----3-------------------|
Bb|--------------------------0----------------------|
Eb|-----0-------------------------------------------|
  |
  |GTR II
 f|-------------------------------------------------|
 C|-11----------------------------11-13-11----9-----|
Ab|-------------------------------------------------|
Eb|-------------------------------------------------|
Bb|-------------------------------------------------|
Eb|-------------------------------------------------|

  GTR I
 f|--------------0----------------------------------|
 C|-----------------0-----0-----------4-------------|
Ab|-----------0--------0-----------0----------------|
Eb|--------3--------------------0-------------------|
Bb|-------------------------------------------------|
Eb|-----3--------------------6----------------------|
  |
  |GTR II
 f|-15----------11----------------------------------|
 C|-------------------------13----------16----------|
Ab|-------------------------------------------------|
Eb|-------------------------------------------------|
Bb|-------------------------------------------------|
Eb|-------------------------------------------------|

  GTR I
 f|-------------------------------------------------|
 C|--------------4--------------------3-------------|
Ab|-----------3-----3--0-----------3----------------|
Eb|--------0--------------0-----3-------------------|
Bb|--------------------------0----------------------|
Eb|-----0-------------------------------------------|
  |
  |GTR II
 f|-------------------------------------------------|
 C|-11----------------------------11-13-11----9-----|
Ab|-------------------------------------------------|
Eb|-------------------------------------------------|
Bb|-------------------------------------------------|
Eb|-------------------------------------------------|

  GTR I
 f|--------------0----------------------------------|
 C|-----------------0-----0-----------4-------------|
Ab|-----------0--------0-----------0----------------|
Eb|--------3--------------------0-------------------|
Bb|-------------------------------------------------|
Eb|-----3--------------------6----------------------|
  |
  |GTR II
 f|-15----------11----------------------------------|
 C|-------------------------13----------16----------|
Ab|-------------------------------------------------|
Eb|-------------------------------------------------|
Bb|-------------------------------------------------|
Eb|-------------------------------------------------|

  GTR I
 f|-------------------------------------------------|
 C|--------------4--------------------3-------------|
Ab|-----------3-----3--0-----------3----------------|
Eb|--------0--------------0-----3-------------------|
Bb|--------------------------0----------------------|
Eb|-----0-------------------------------------------|
  |
  |GTR II
 f|-------------------------------------------------|
 C|-11----------------------------11-13-11----9-----|
Ab|-------------------------------------------------|
Eb|-------------------------------------------------|
Bb|-------------------------------------------------|
Eb|-------------------------------------------------|

Pre Chorus 2

  GTR II
 f|-------------------------------------------------|
 C|-------------------------------------------------|
Ab|-------------------------------------------------|
Eb|--6----------------------------------------------|
Bb|--6----------------------------------------------|
Eb|--6----------------------------------------------|
  |
  |GTR III
 f|-------------------------------------------------|
 C|--9--9--9--9--8--8--8--8--9--9--9--9-11-11-11-11-|
Ab|--8--8--8--8--8--8--8--8--8--8--8--8-10-10-10-10-|
Eb|-------------------------------------------------|
Bb|-------------------------------------------------|
Eb|-------------------------------------------------|

  GTR II
 f|-------------------------------------------------|
 C|-------------------------------------------------|
Ab|--3----------------------------------------------|
Eb|--3----------------------------------------------|
Bb|--0----------------------------------------------|
Eb|-------------------------------------------------|
  |
  |GTR III
 f|-------------------------------------------------|
 C|--9--9--9--9--8--8--8--8--9--9--9--9--8--8--8--8-|
Ab|--8--8--8--8--8--8--8--8--8--8--8--8--8--8--8--8-|
Eb|-------------------------------------------------|
Bb|-------------------------------------------------|
Eb|-------------------------------------------------|

  GTR II
 f|-------------------------------------------------|
 C|-------------------------------------------------|
Ab|-------------------------------------------------|
Eb|--6----------------------------------------------|
Bb|--6----------------------------------------------|
Eb|--6----------------------------------------------|
  |
  |GTR III
 f|-------------------------------------------------|
 C|--9--9--9--9--8--8--8--8--9--9--9--9-11-11-11-11-|
Ab|--8--8--8--8--8--8--8--8--8--8--8--8-10-10-10-10-|
Eb|-------------------------------------------------|
Bb|-------------------------------------------------|
Eb|-------------------------------------------------|

  GTR II
 f|-------------------------------------------------|
 C|-------------------------------------------------|
Ab|--5----------------------------------------------|
Eb|--5-----------------------x--x-----x--x-----x--x-|
Bb|--3-----------------------x--x-----x--x-----x--x-|
Eb|--------------------------x--x-----x--x-----x--x-|
  |
  |GTR III
 f|-------------------------------------------------|
 C|-------------------------------------------------|
Ab|--5----------------------------------------------|
Eb|--5-----------------------x--x-----x--x----------|
Bb|--3-----------------------x--x-----x--x----------|
Eb|--------------------------x--x-----x--x----------|

Chorus 2

  GTR I
 f|--0-----0-----0-----0--0--4-----4-----4-----4--4-|
 C|--0-----0-----0-----0--0--4-----4-----4-----4--4-|
Ab|--0-----0-----0-----0--0--x-----x-----x-----x--x-|
Eb|--3-----3-----3-----3--3--6-----6-----6-----6--6-|
Bb|--3-----3-----3-----3--3--6-----6-----6-----6--6-|
Eb|--3-----3-----3-----3--3--6-----6-----6-----6--6-|
  |
  |GTR II
 f|-------------------------------------------------|
 C|-------------------------------------------------|
Ab|-------------------------------------------------|
Eb|--3-----3-----3-----3--3--6-----6-----6-----6--6-|
Bb|--3-----3-----3-----3--3--6-----6-----6-----6--6-|
Eb|--3-----3-----3-----3--3--6-----6-----6-----6--6-|
  |
  |GTR III
 f|-12----------------------11----------------11----|
 C|-------13----------------------11----------------|
Ab|-------------13----------------------12----------|
Eb|-------------------13----------------------------|
Bb|-------------------------------------------------|
Eb|-------------------------------------------------|

  GTR I
 f|--0-----0-----0-----0--0--0-----0-----0-----0--0-|
 C|--4-----4-----4-----4--4--x-----x-----x-----x--x-|
Ab|--3-----3-----3-----3--3--3-----3-----3-----3--3-|
Eb|--0-----0-----0-----0--0--3-----3-----3-----3--3-|
Bb|--0-----0-----0-----0--0--0-----0-----0-----0--0-|
Eb|--0-----0-----0-----0--0-------------------------|
  |
  |GTR II
 f|-------------------------------------------------|
 C|-------------------------------------------------|
Ab|--------------------------3-----3-----3-----3--3-|
Eb|--0-----0-----0-----0--0--3-----3-----3-----3--3-|
Bb|--0-----0-----0-----0--0--0-----0-----0-----0--0-|
Eb|--0-----0-----0-----0--0-------------------------|
  |
  |GTR III
 f|-------------------11----10----------------------|
 C|-------11----------------------11----------------|
Ab|-------------12----------------------12----------|
Eb|-------------------------------------------12----|
Bb|-------------------------------------------------|
Eb|-------------------------------------------------|

  GTR I
 f|--0-----0-----0-----0--0--4-----4-----4-----4--4-|
 C|--0-----0-----0-----0--0--4-----4-----4-----4--4-|
Ab|--0-----0-----0-----0--0--x-----x-----x-----x--x-|
Eb|--3-----3-----3-----3--3--6-----6-----6-----6--6-|
Bb|--3-----3-----3-----3--3--6-----6-----6-----6--6-|
Eb|--3-----3-----3-----3--3--6-----6-----6-----6--6-|
  |
  |GTR II
 f|-------------------------------------------------|
 C|-------------------------------------------------|
Ab|-------------------------------------------------|
Eb|--3-----3-----3-----3--3--6-----6-----6-----6--6-|
Bb|--3-----3-----3-----3--3--6-----6-----6-----6--6-|
Eb|--3-----3-----3-----3--3--6-----6-----6-----6--6-|
  |
  |GTR III
 f|-12----------------------11----------------11----|
 C|-------13----------------------11----------------|
Ab|-------------13----------------------12----------|
Eb|-------------------13----------------------------|
Bb|-------------------------------------------------|
Eb|-------------------------------------------------|

  GTR I
 f|--0-----0-----0-----0--0--0-----0-----0-----0--0-|
 C|--4-----4-----4-----4--4--x-----x-----x-----x--x-|
Ab|--3-----3-----3-----3--3--3-----3-----3-----3--3-|
Eb|--0-----0-----0-----0--0--3-----3-----3-----3--3-|
Bb|--0-----0-----0-----0--0--0-----0-----0-----0--0-|
Eb|--0-----0-----0-----0--0-------------------------|
  |
  |GTR II
 f|-------------------------------------------------|
 C|-------------------------------------------------|
Ab|--------------------------3-----3-----3-----3--3-|
Eb|--0-----0-----0-----0--0--3-----3-----3-----3--3-|
Bb|--0-----0-----0-----0--0--0-----0-----0-----0--0-|
Eb|--0-----0-----0-----0--0-------------------------|
  |
  |GTR III
 f|-------------------11----10----------------------|
 C|-------11----------------------11----------------|
Ab|-------------12----------------------12----------|
Eb|-------------------------------------------12----|
Bb|-------------------------------------------------|
Eb|-------------------------------------------------|

  GTR I
 f|--4-----4-----4-----4--4--4-----4-----4-----4--4-|
 C|--4-----4-----4-----4--4--4-----4-----4-----4--4-|
Ab|--6-----6-----6-----6--6--x-----x-----x-----x--x-|
Eb|--6-----6-----6-----6--6--6-----6-----6-----6--6-|
Bb|--4-----4-----4-----4--4--6-----6-----6-----6--6-|
Eb|--------------------------6-----6-----6-----6--6-|
  |
  |GTR II
 f|-------------------------------------------------|
 C|-------------------------------------------------|
Ab|--6-----6-----6-----6--6-------------------------|
Eb|--6-----6-----6-----6--6--6-----6-----6-----6--6-|
Bb|--4-----4-----4-----4--4--6-----6-----6-----6--6-|
Eb|--------------------------6-----6-----6-----6--6-|
  |
  |GTR III
 f|-12----------12----------11----------11----11----|
 C|-------13----------13----------11----------------|
Ab|-------------------------------------------------|
Eb|-------------------------------------------------|
Bb|-------------------------------------------------|
Eb|-------------------------------------------------|

  GTR I
 f|--0-----0-----0-----0--0--0-----0-----0-----0--0-|
 C|--4-----4-----4-----4--4--x-----x-----x-----x--x-|
Ab|--3-----3-----3-----3--3--3-----3-----3-----3--3-|
Eb|--0-----0-----0-----0--0--3-----3-----3-----3--3-|
Bb|--0-----0-----0-----0--0--0-----0-----0-----0--0-|
Eb|--0-----0-----0-----0--0-------------------------|
  |
  |GTR II
 f|-------------------------------------------------|
 C|-------------------------------------------------|
Ab|--------------------------3-----3-----3-----3--3-|
Eb|--0-----0-----0-----0--0--3-----3-----3-----3--3-|
Bb|--0-----0-----0-----0--0--0-----0-----0-----0--0-|
Eb|--0-----0-----0-----0--0-------------------------|
  |
  |GTR III
 f|-------------------11----10----------10----------|
 C|-------11----------------------11----------11----|
Ab|-------------12----------------------------------|
Eb|-------------------------------------------------|
Bb|-------------------------------------------------|
Eb|-------------------------------------------------|

  GTR I
 f|--4-----4-----4-----4--4--4-----4-----4-----4--4-|
 C|--4-----4-----4-----4--4--4-----4-----4-----4--4-|
Ab|--6-----6-----6-----6--6--6-----6-----6-----6--6-|
Eb|--6-----6-----6-----6--6--6-----6-----6-----6--6-|
Bb|--4-----4-----4-----4--4--4-----4-----4-----4--4-|
Eb|-------------------------------------------------|
  |
  |GTR II
 f|-------------------------------------------------|
 C|-------------------------------------------------|
Ab|--6-----6-----6-----6--6--6-----6-----6-----6--6-|
Eb|--6-----6-----6-----6--6--6-----6-----6-----6--6-|
Bb|--4-----4-----4-----4--4--4-----4-----4-----4--4-|
Eb|-------------------------------------------------|
  |
  |GTR III
 f|-------------------------------------------------|
 C|-14----------14----------14----------14----------|
Ab|-------13----------13----------13----------13----|
Eb|-------------------------------------------------|
Bb|-------------------------------------------------|
Eb|-------------------------------------------------|

  GTR I
 f|--0-----0-----0-----0--0--0-----0-----0-----0--0-|
 C|--4-----4-----4-----4--4--4-----4-----4-----4--4-|
Ab|--3-----3-----3-----3--3--3-----3-----3-----3--3-|
Eb|--0-----0-----0-----0--0--0-----0-----0-----0--0-|
Bb|--0-----0-----0-----0--0--0-----0-----0-----0--0-|
Eb|--0-----0-----0-----0--0--0-----0-----0-----0--0-|
  |
  |GTR II
 f|-------------------------------------------------|
 C|-------------------------------------------------|
Ab|--8-----8-----8-----8--8--8-----8-----8-----8--8-|
Eb|--8-----8-----8-----8--8--8-----8-----8-----8--8-|
Bb|--6-----6-----6-----6--6--6-----6-----6-----6--6-|
Eb|-------------------------------------------------|
  |
  |GTR III
 f|-------------------------------------------------|
 C|-16----------16----------16----------16----------|
Ab|-------15----------15----------15----------15----|
Eb|-------------------------------------------------|
Bb|-------------------------------------------------|
Eb|-------------------------------------------------|

Bridge

  GTR I
 f|--------------0-----------------------4----------|
 C|--------------0-----------------------4----------|
Ab|--------------0-----------------------x----------|
Eb|--------------3-----------------------6----------|
Bb|--3--3--3--3--3-----------6--6--6--6--6----------|
Eb|--3--3--3--3--3-----------6--6--6--6--6----------|
  |  .  .  .  .              .  .  .  .
  |GTR II,III
 f|-------------------------------------------------|
 C|-------------------------------------------------|
Ab|-------------------------------------------------|
Eb|--------------3-----------------------6----------|
Bb|--3--3--3--3--3-----------6--6--6--6--6----------|
Eb|--3--3--3--3--3-----------6--6--6--6--6----------|
     .  .  .  .              .  .  .  .

  GTR I
 f|--------------0-----0--0--0--0--0-----0-----0--0-|
 C|--------------4-----4--4--4--x--x-----x-----x--x-|
Ab|--------------3-----3--3--3--3--3-----3-----3--3-|
Eb|--------------0-----0--0--0--3--3-----3-----3--3-|
Bb|--0--0--0--0--0-----0--0--0--0--0-----0-----0--0-|
Eb|--0--0--0--0--0-----0--0--0----------------------|
  |  .  .  .  .                           
  |GTR II,III
 f|-------------------------------------------------|
 C|-------------------------------------------------|
Ab|-----------------------------3--3-----3-----3--3-|
Eb|--------------0-----0--0--0--3--3-----3-----3--3-|
Bb|--0--0--0--0--0-----0--0--0--0--0-----0-----0--0-|
Eb|--0--0--0--0--0-----0--0--0----------------------|
     .  .  .  .                         

  GTR I
 f|--------------0-----------------------4----------|
 C|--------------0-----------------------4----------|
Ab|--------------0-----------------------x----------|
Eb|--------------3-----------------------6----------|
Bb|--3--3--3--3--3-----------6--6--6--6--6----------|
Eb|--3--3--3--3--3-----------6--6--6--6--6----------|
  |  .  .  .  .              .  .  .  .
  |GTR II,III
 f|-------------------------------------------------|
 C|-------------------------------------------------|
Ab|-------------------------------------------------|
Eb|--------------3-----------------------6----------|
Bb|--3--3--3--3--3-----------6--6--6--6--6----------|
Eb|--3--3--3--3--3-----------6--6--6--6--6----------|
     .  .  .  .              .  .  .  .

  GTR I
 f|--------------0-----0--0--0--0--0-----0-----3----|
 C|--------------4-----4--4--4--x--x-----x-----3----|
Ab|--------------3-----3--3--3--3--3-----3-----5----|
Eb|--------------0-----0--0--0--3--3-----3-----5----|
Bb|--0--0--0--0--0-----0--0--0--0--0-----0-----3----|
Eb|--0--0--0--0--0-----0--0--0----------------------|
  |  .  .  .  .                           
  |GTR II,III
 f|-------------------------------------------------|
 C|-------------------------------------------------|
Ab|-----------------------------3--3-----3-----5----|
Eb|--------------0-----0--0--0--3--3-----3-----5----|
Bb|--0--0--0--0--0-----0--0--0--0--0-----0-----3----|
Eb|--0--0--0--0--0-----0--0--0----------------------|
     .  .  .  .                         

Guitar Solo

  GTR I
 f|--4-----4-----4-----4--4--4-----4-----4-----4--4-|
 C|--4-----4-----4-----4--4--4-----4-----4-----4--4-|
Ab|--6-----6-----6-----6--6--x-----x-----x-----x--x-|
Eb|--6-----6-----6-----6--6--6-----6-----6-----6--6-|
Bb|--4-----4-----4-----4--4--6-----6-----6-----6--6-|
Eb|--------------------------6-----6-----6-----6--6-|
  |
  |GTR II
 f|-------------------------------------------------|
 C|-------------------------------------------------|
Ab|--6-----6-----6-----6--6-------------------------|
Eb|--6-----6-----6-----6--6--6-----6-----6-----6--6-|
Bb|--4-----4-----4-----4--4--6-----6-----6-----6--6-|
Eb|--------------------------6-----6-----6-----6--6-|
  |
  |GTR III
 f|-------------------------------------------------|
 C|------/13----13----13----13\-9--9-----9----11----|
Ab|------/13----13----13----13\-8--8-----8----10----|
Eb|-------------------------------------------------|
Bb|-------------------------------------------------|
Eb|-------------------------------------------------|

  GTR I
 f|--0-----0-----0-----0--0--0--0--0--0--0-----3----|
 C|--4-----4-----4-----4--4--x--x--x--x--x-----3----|
Ab|--3-----3-----3-----3--3--3--3--3--3--3-----5----|
Eb|--0-----0-----0-----0--0--3--3--3--3--3-----5----|
Bb|--0-----0-----0-----0--0--0--0--0--0--0-----3----|
Eb|--0-----0-----0-----0--0-------------------------|
  |
  |GTR II
 f|-------------------------------------------------|
 C|-------------------------------------------------|
Ab|--------------------------3--3--3--3--3-----5----|
Eb|--0-----0-----0-----0--0--3--3--3--3--3-----5----|
Bb|--0-----0-----0-----0--0--0--0--0--0--0-----3----|
Eb|--0-----0-----0-----0--0-------------------------|
  |
  |GTR III
 f|-------------------------------------------------|
 C|-------11----11----11----11-----9-----8-----9----|
Ab|-------10----10----10----10-----8-----8-----8----|
Eb|-------------------------------------------------|
Bb|-------------------------------------------------|
Eb|-------------------------------------------------|

  GTR I
 f|--4-----4-----4-----4--4--4-----4-----4-----4--4-|
 C|--4-----4-----4-----4--4--4-----4-----4-----4--4-|
Ab|--6-----6-----6-----6--6--x-----x-----x-----x--x-|
Eb|--6-----6-----6-----6--6--6-----6-----6-----6--6-|
Bb|--4-----4-----4-----4--4--6-----6-----6-----6--6-|
Eb|--------------------------6-----6-----6-----6--6-|
  |
  |GTR II
 f|-------------------------------------------------|
 C|-------------------------------------------------|
Ab|--6-----6-----6-----6--6-------------------------|
Eb|--6-----6-----6-----6--6--6-----6-----6-----6--6-|
Bb|--4-----4-----4-----4--4--6-----6-----6-----6--6-|
Eb|--------------------------6-----6-----6-----6--6-|
  |
  |GTR III
 f|-------------------------------------------------|
 C|------/13----13----13----13----11----11----11----|
Ab|------/13----13----13----13----10----10----10----|
Eb|-------------------------------------------------|
Bb|-------------------------------------------------|
Eb|-------------------------------------------------|

  GTR I
 f|--0-----0-----0-----0--0--------------0-----3----|
 C|--4-----4-----4-----4--4--------------x-----3----|
Ab|--3-----3-----3-----3--3--------------3-----5----|
Eb|--0-----0-----0-----0--0--3--3--3--3--3-----5----|
Bb|--0-----0-----0-----0--0--0--0--0--0--0-----3----|
Eb|--0-----0-----0-----0--0-------------------------|
  |                          .  .  .  . 
  |GTR II
 f|-------------------------------------------------|
 C|-------------------------------------------------|
Ab|--------------------------------------3-----5----|
Eb|--0-----0-----0-----0--0--3--3--3--3--3-----5----|
Bb|--0-----0-----0-----0--0--0--0--0--0--0-----3----|
Eb|--0-----0-----0-----0--0-------------------------|
  |                          .  .  .  .
  |GTR III
 f|-------------------------------------------------|
 C|--8-----9-----8-----9----11-----9-----8-----9----|
Ab|--8-----8-----8-----8----10-----8-----8-----8----|
Eb|-------------------------------------------------|
Bb|-------------------------------------------------|
Eb|-------------------------------------------------|

  GTR I
 f|--4-----4-----4-----4--4--4-----4-----4-----4--4-|
 C|--4-----4-----4-----4--4--4-----4-----4-----4--4-|
Ab|--6-----6-----6-----6--6--6-----6-----6-----6--6-|
Eb|--6-----6-----6-----6--6--6-----6-----6-----6--6-|
Bb|--4-----4-----4-----4--4--4-----4-----4-----4--4-|
Eb|-------------------------------------------------|
  |
  |GTR II
 f|-------------------------------------------------|
 C|-------------------------------------------------|
Ab|--6-----6-----6-----6--6--6-----6-----6-----6--6-|
Eb|--6-----6-----6-----6--6--6-----6-----6-----6--6-|
Bb|--4-----4-----4-----4--4--4-----4-----4-----4--4-|
Eb|-------------------------------------------------|
  |
  |GTR III
 f|-------------------------------------------------|
 C|-13----13----13----13----13----13----13----13----|
Ab|-13----13----13----13----13----13----13----13----|
Eb|-------------------------------------------------|
Bb|-------------------------------------------------|
Eb|-------------------------------------------------|

  GTR I
 f|--0-----0-----0-----0--0--0-----0-----0----------|
 C|--4-----4-----4-----4--4--4-----4-----4----------|
Ab|--3-----3-----3-----3--3--3-----3-----3----------|
Eb|--0-----0-----0-----0--0--0-----0-----0----------|
Bb|--0-----0-----0-----0--0--0-----0-----0----------|
Eb|--0-----0-----0-----0--0--0-----0-----0----------|
  |
  |GTR II
 f|-------------------------------------------------|
 C|-------------------------------------------------|
Ab|--8-----8-----8-----8--8--8-----8-----8----------|
Eb|--8-----8-----8-----8--8--8-----8-----8----------|
Bb|--6-----6-----6-----6--6--6-----6-----6----------|
Eb|-------------------------------------------------|
  |
  |GTR III
 f|-------------------------------------------------|
 C|-11----11----11----11----11----11----11----------|
Ab|-10----10----10----10----10----10----10----------|
Eb|-------------------------------------------------|
Bb|-------------------------------------------------|
Eb|-------------------------------------------------|

Chorus 3

  GTR I
 f|--0-----0-----0-----0--0--4-----4-----4-----4--4-|
 C|--0-----0-----0-----0--0--4-----4-----4-----4--4-|
Ab|--0-----0-----0-----0--0--x-----x-----x-----x--x-|
Eb|--3-----3-----3-----3--3--6-----6-----6-----6--6-|
Bb|--3-----3-----3-----3--3--6-----6-----6-----6--6-|
Eb|--3-----3-----3-----3--3--6-----6-----6-----6--6-|
  |
  |GTR III
 f|-12----------------------11----------------11----|
 C|-------13----------------------11----------------|
Ab|-------------13----------------------12----------|
Eb|-------------------13----------------------------|
Bb|-------------------------------------------------|
Eb|-------------------------------------------------|

  GTR I
 f|--0-----0-----0-----0--0--0-----0-----0-----0--0-|
 C|--4-----4-----4-----4--4--x-----x-----x-----x--x-|
Ab|--3-----3-----3-----3--3--3-----3-----3-----3--3-|
Eb|--0-----0-----0-----0--0--3-----3-----3-----3--3-|
Bb|--0-----0-----0-----0--0--0-----0-----0-----0--0-|
Eb|--0-----0-----0-----0--0-------------------------|
  |
  |GTR II
 f|-------------------------------------------------|
 C|-------------------------------------------------|
Ab|--------------------------3-----3-----3-----3--3-|
Eb|--0-----0-----0-----0--0--3-----3-----3-----3--3-|
Bb|--0-----0-----0-----0--0--0-----0-----0-----0--0-|
Eb|--0-----0-----0-----0--0-------------------------|
  |
  |GTR III
 f|-------------------11----10----------------------|
 C|-------11----------------------11----------------|
Ab|-------------12----------------------12----------|
Eb|-------------------------------------------12----|
Bb|-------------------------------------------------|
Eb|-------------------------------------------------|

  GTR I
 f|--0-----0-----0-----0--0--4-----4-----4-----4--4-|
 C|--0-----0-----0-----0--0--4-----4-----4-----4--4-|
Ab|--0-----0-----0-----0--0--x-----x-----x-----x--x-|
Eb|--3-----3-----3-----3--3--6-----6-----6-----6--6-|
Bb|--3-----3-----3-----3--3--6-----6-----6-----6--6-|
Eb|--3-----3-----3-----3--3--6-----6-----6-----6--6-|
  |
  |GTR II
 f|-------------------------------------------------|
 C|-------------------------------------------------|
Ab|-------------------------------------------------|
Eb|--3-----3-----3-----3--3--6-----6-----6-----6--6-|
Bb|--3-----3-----3-----3--3--6-----6-----6-----6--6-|
Eb|--3-----3-----3-----3--3--6-----6-----6-----6--6-|
  |
  |GTR III
 f|-12----------------------11----------------11----|
 C|-------13----------------------11----------------|
Ab|-------------13----------------------12----------|
Eb|-------------------13----------------------------|
Bb|-------------------------------------------------|
Eb|-------------------------------------------------|

  GTR I
 f|--0-----0-----0-----0--0--0-----0-----0-----0--0-|
 C|--4-----4-----4-----4--4--x-----x-----x-----x--x-|
Ab|--3-----3-----3-----3--3--3-----3-----3-----3--3-|
Eb|--0-----0-----0-----0--0--3-----3-----3-----3--3-|
Bb|--0-----0-----0-----0--0--0-----0-----0-----0--0-|
Eb|--0-----0-----0-----0--0-------------------------|
  |
  |GTR II
 f|-------------------------------------------------|
 C|-------------------------------------------------|
Ab|--------------------------3-----3-----3-----3--3-|
Eb|--0-----0-----0-----0--0--3-----3-----3-----3--3-|
Bb|--0-----0-----0-----0--0--0-----0-----0-----0--0-|
Eb|--0-----0-----0-----0--0-------------------------|
  |
  |GTR III
 f|-------------------11----10----------------------|
 C|-------11----------------------11----------------|
Ab|-------------12----------------------12----------|
Eb|-------------------------------------------12----|
Bb|-------------------------------------------------|
Eb|-------------------------------------------------|

  GTR I
 f|--4-----4-----4-----4--4--4-----4-----4-----4--4-|
 C|--4-----4-----4-----4--4--4-----4-----4-----4--4-|
Ab|--6-----6-----6-----6--6--x-----x-----x-----x--x-|
Eb|--6-----6-----6-----6--6--6-----6-----6-----6--6-|
Bb|--4-----4-----4-----4--4--6-----6-----6-----6--6-|
Eb|--------------------------6-----6-----6-----6--6-|
  |
  |GTR II
 f|-------------------------------------------------|
 C|-------------------------------------------------|
Ab|--6-----6-----6-----6--6-------------------------|
Eb|--6-----6-----6-----6--6--6-----6-----6-----6--6-|
Bb|--4-----4-----4-----4--4--6-----6-----6-----6--6-|
Eb|--------------------------6-----6-----6-----6--6-|
  |
  |GTR III
 f|-12----------12----------11----------11----11----|
 C|-------13----------13----------11----------------|
Ab|-------------------------------------------------|
Eb|-------------------------------------------------|
Bb|-------------------------------------------------|
Eb|-------------------------------------------------|

  GTR I
 f|--0-----0-----0-----0--0--0-----0-----0-----0--0-|
 C|--4-----4-----4-----4--4--x-----x-----x-----x--x-|
Ab|--3-----3-----3-----3--3--3-----3-----3-----3--3-|
Eb|--0-----0-----0-----0--0--3-----3-----3-----3--3-|
Bb|--0-----0-----0-----0--0--0-----0-----0-----0--0-|
Eb|--0-----0-----0-----0--0-------------------------|
  |
  |GTR II
 f|-------------------------------------------------|
 C|-------------------------------------------------|
Ab|--------------------------3-----3-----3-----3--3-|
Eb|--0-----0-----0-----0--0--3-----3-----3-----3--3-|
Bb|--0-----0-----0-----0--0--0-----0-----0-----0--0-|
Eb|--0-----0-----0-----0--0-------------------------|
  |
  |GTR III
 f|-------------------11----10----------10----------|
 C|-------11----------------------11----------11----|
Ab|-------------12----------------------------------|
Eb|-------------------------------------------------|
Bb|-------------------------------------------------|
Eb|-------------------------------------------------|

  GTR I
 f|--4-----4-----4-----4--4--4-----4-----4-----4--4-|
 C|--4-----4-----4-----4--4--4-----4-----4-----4--4-|
Ab|--6-----6-----6-----6--6--6-----6-----6-----6--6-|
Eb|--6-----6-----6-----6--6--6-----6-----6-----6--6-|
Bb|--4-----4-----4-----4--4--4-----4-----4-----4--4-|
Eb|-------------------------------------------------|
  |
  |GTR II
 f|-------------------------------------------------|
 C|-------------------------------------------------|
Ab|--6-----6-----6-----6--6--6-----6-----6-----6--6-|
Eb|--6-----6-----6-----6--6--6-----6-----6-----6--6-|
Bb|--4-----4-----4-----4--4--4-----4-----4-----4--4-|
Eb|-------------------------------------------------|
  |
  |GTR III
 f|-------------------------------------------------|
 C|-14----------14----------14----------14----------|
Ab|-------13----------13----------13----------13----|
Eb|-------------------------------------------------|
Bb|-------------------------------------------------|
Eb|-------------------------------------------------|

  GTR I
 f|--0-----0-----0-----0--0--0-----0-----0-----0--0-|
 C|--4-----4-----4-----4--4--4-----4-----4-----4--4-|
Ab|--3-----3-----3-----3--3--3-----3-----3-----3--3-|
Eb|--0-----0-----0-----0--0--0-----0-----0-----0--0-|
Bb|--0-----0-----0-----0--0--0-----0-----0-----0--0-|
Eb|--0-----0-----0-----0--0--0-----0-----0-----0--0-|
  |
  |GTR II
 f|-------------------------------------------------|
 C|-------------------------------------------------|
Ab|--8-----8-----8-----8--8--8-----8-----8-----8--8-|
Eb|--8-----8-----8-----8--8--8-----8-----8-----8--8-|
Bb|--6-----6-----6-----6--6--6-----6-----6-----6--6-|
Eb|-------------------------------------------------|
  |
  |GTR III
 f|-------------------------------------------------|
 C|-16----------16----------16----------16----------|
Ab|-------15----------15----------15----------15----|
Eb|-------------------------------------------------|
Bb|-------------------------------------------------|
Eb|-------------------------------------------------|

  GTR I
 f|--4-----4-----4-----4--4--4-----4-----4-----4--4-|
 C|--4-----4-----4-----4--4--4-----4-----4-----4--4-|
Ab|--6-----6-----6-----6--6--6-----6-----6-----6--6-|
Eb|--6-----6-----6-----6--6--6-----6-----6-----6--6-|
Bb|--4-----4-----4-----4--4--4-----4-----4-----4--4-|
Eb|-------------------------------------------------|
  |
  |GTR II
 f|-------------------------------------------------|
 C|-------------------------------------------------|
Ab|--6-----6-----6-----6--6--6-----6-----6-----6--6-|
Eb|--6-----6-----6-----6--6--6-----6-----6-----6--6-|
Bb|--4-----4-----4-----4--4--4-----4-----4-----4--4-|
Eb|-------------------------------------------------|
  |
  |GTR III
 f|-------------------------------------------------|
 C|-14----------14----------14----------14----------|
Ab|-------13----------13----------13----------13----|
Eb|-------------------------------------------------|
Bb|-------------------------------------------------|
Eb|-------------------------------------------------|

  GTR I
 f|--0-----0-----0-----0--0--0-----0-----0-----0--0-|
 C|--4-----4-----4-----4--4--4-----4-----4-----4--4-|
Ab|--3-----3-----3-----3--3--3-----3-----3-----3--3-|
Eb|--0-----0-----0-----0--0--0-----0-----0-----0--0-|
Bb|--0-----0-----0-----0--0--0-----0-----0-----0--0-|
Eb|--0-----0-----0-----0--0--0-----0-----0-----0--0-|
  |
  |GTR II
 f|-------------------------------------------------|
 C|-------------------------------------------------|
Ab|--8-----8-----8-----8--8--8-----8-----8-----8--8-|
Eb|--8-----8-----8-----8--8--8-----8-----8-----8--8-|
Bb|--6-----6-----6-----6--6--6-----6-----6-----6--6-|
Eb|-------------------------------------------------|
  |
  |GTR III
 f|-------------------------------------------------|
 C|-16----------16----------16----------16----------|
Ab|-------15----------15----------15----------15----|
Eb|-------------------------------------------------|
Bb|-------------------------------------------------|
Eb|-------------------------------------------------|

Outro

  GTR I
 f|--------------0-----------------------4----------|
 C|--------------0-----------------------4----------|
Ab|--------------0-----------------------x----------|
Eb|--------------3-----------------------6----------|
Bb|--3--3--3--3--3-----------6--6--6--6--6----------|
Eb|--3--3--3--3--3-----------6--6--6--6--6----------|
  |  .  .  .  .              .  .  .  .
  |GTR II,III
 f|-------------------------------------------------|
 C|-------------------------------------------------|
Ab|-------------------------------------------------|
Eb|--------------3-----------------------6----------|
Bb|--3--3--3--3--3-----------6--6--6--6--6----------|
Eb|--3--3--3--3--3-----------6--6--6--6--6----------|
     .  .  .  .              .  .  .  .

  GTR I
 f|--------------0-----0--0--0--0--0-----0-----0--0-|
 C|--------------4-----4--4--4--x--x-----x-----x--x-|
Ab|--------------3-----3--3--3--3--3-----3-----3--3-|
Eb|--------------0-----0--0--0--3--3-----3-----3--3-|
Bb|--0--0--0--0--0-----0--0--0--0--0-----0-----0--0-|
Eb|--0--0--0--0--0-----0--0--0----------------------|
  |  .  .  .  .                           
  |GTR II,III
 f|-------------------------------------------------|
 C|-------------------------------------------------|
Ab|-----------------------------3--3-----3-----3--3-|
Eb|--------------0-----0--0--0--3--3-----3-----3--3-|
Bb|--0--0--0--0--0-----0--0--0--0--0-----0-----0--0-|
Eb|--0--0--0--0--0-----0--0--0----------------------|
     .  .  .  .                         

  GTR I
 f|--------------0-----------------------4----------|
 C|--------------0-----------------------4----------|
Ab|--------------0-----------------------x----------|
Eb|--------------3-----------------------6----------|
Bb|--3--3--3--3--3-----------6--6--6--6--6----------|
Eb|--3--3--3--3--3-----------6--6--6--6--6----------|
  |  .  .  .  .              .  .  .  .
  |GTR II,III
 f|-------------------------------------------------|
 C|-------------------------------------------------|
Ab|-------------------------------------------------|
Eb|--------------3-----------------------6----------|
Bb|--3--3--3--3--3-----------6--6--6--6--6----------|
Eb|--3--3--3--3--3-----------6--6--6--6--6----------|
     .  .  .  .              .  .  .  .

  GTR I
 f|--------------0-----0--0--0--0--0-----0-----0--0-|
 C|--------------4-----4--4--4--x--x-----x-----x--x-|
Ab|--------------3-----3--3--3--3--3-----3-----3--3-|
Eb|--------------0-----0--0--0--3--3-----3-----3--3-|
Bb|--0--0--0--0--0-----0--0--0--0--0-----0-----0--0-|
Eb|--0--0--0--0--0-----0--0--0----------------------|
  |  .  .  .  .                           
  |GTR II,III
 f|-------------------------------------------------|
 C|-------------------------------------------------|
Ab|-----------------------------3--3-----3-----3--3-|
Eb|--------------0-----0--0--0--3--3-----3-----3--3-|
Bb|--0--0--0--0--0-----0--0--0--0--0-----0-----0--0-|
Eb|--0--0--0--0--0-----0--0--0----------------------|
     .  .  .  .                         

  GTR I
 f|-------------------------------------------------|
 C|-------------------------------------------------|
Ab|-------------------------------------------------|
Eb|-------------------------------------------------|
Bb|--3--3--3--3-------------------------------------|
Eb|--3--3--3--3-------------------------------------|
  |  .  .  .  .                        
  |GTR II,III
 f|-------------------------------------------------|
 C|-------------------------------------------------|
Ab|-------------------------------------------------|
Eb|-------------------------------------------------|
Bb|--3--3--3--3-------------------------------------|
Eb|--3--3--3--3-------------------------------------|
     .  .  .  .                        



| b  bend
| r  release bend
|trp triplet
|PH. pinch harmonic
|fbk feedback
| .  palm-mute
| /  slide up
| \  slide down
| h  hammer-on
| p  pull-off
| ~  vibrato
| +  harmonic
| x  Mute note
===============================================================================
comments
We did not receive enough feedback on this tab! Please rate:
1 2 3 4 5
I want to post or [tab]
guest
You may want to rate the tab now too:
select rating
Please do not post tabs as comments. Select "correction" instead!