Oops, an error
Loading. Please wait.

Cause And Effect Tab

114 views 3 this week
no commentswrite comment
1 2 3 4 5
please rate
Autoscroll
+/-
esc
set tempo
stop
Contributor
Difficulty
Tuning
intermediate
D A D G B E
Hey! There's an official Ultimate Guitar app which is ideal
for learning songs when you're away from computer. Get the app
WARNING: You are trying to view
                                    content from Ultimate-Guitar.com
                                    in an unauthorized application,
                                    which is prohibited.

                                    Please use an official Ultimate
                                    Guitar Tabs application for iPhone,
                                    iPad or Android to access legitimate
                                    chords, guitar, bass, and drum tabs
                                    from Ultimate-Guitar.com database.

                                    Type "ultimate guitar tabs" in Apple
                                    App Store's or Android Market's
                                    search to find the application.
Artist - Sinch
Song - Cause And Effect

Tabbed by Modulistic_terror[at]hotmail[dot]com

This is how I play it, sounds close enough for me.

E|---------------------------------------------------------------|
B|---------------------------------------------------------------|
G|---------------------------------------------------------------|
D|---7-----------------------7-----------------------------------|
A|-------3/5---8---8-7-5---------3/5---10---10-8-7---------------|
D|-8-----------------------8-------------------------------------|

E|---------------------------------------------------------------|
B|---------------------------------------------------------------|
G|---------------------------------------------------------------|
D|---7-----------------------7-----------------------------------|
A|-------3/5---8---8-7-5---------3/5---10---10/12-12-------------|
D|-8-----------------------8-------------------------------------|

E|---------------------------------------------------------------|
B|---------------------------------------------------------------|
G|-------5-7-----------------------------------------------------|
D|---7---5-7------------------7---7-5----------------------------|
A|-------3-5----------------------7-5----------------------------|
D|-8---x--------------------8---x-7-5----------------------------|

E|---------------------------------------------------------------|
B|---------------------------------------------------------------|
G|---------------------------------------------------------------|
D|-----7-----7-----7-----7------7-----7-----7-----7--------------|
A|---------------------------------------------------------------|
D|-x-8---x-8---x-8---x-8----x-5---x-5---x-5---x-5----------------|

E|---------------------------------------------------------------|
B|---------------------------------------------------------------|
G|-----7-----7-----7-----7------9-----9-----9-----9--------------|
D|---------------------------------------------------------------|
A|-x-5---x-5---x-5---x-5----x-7---x-7---x-7---x-7----------------|
D|---------------------------------------------------------------|

E|---------------------------------------------------------------|
B|---------------------------------------------------------------|
G|---------------------------------------------------------------|
D|-----7-----7-----7-----7---------------------------------------|
A|---------------------------------------------------------------|
D|-x-8---x-8---x-8---x-8----5-5-5-5-5-5-5-5-5-5-5-5--------------|

E|---------------------------------------------------------------|
B|---------------------------------------------------------------|
G|---------------------------------------------------------------|
D|---7-----------------------7-----------------------------------|
A|-------3/5---8---8-7-5---------3/5---10---10-8-7---------------|
D|-8---x-----x---x-------x-8---x-----x----x----------------------|

E|---------------------------------------------------------------|
B|---------------------------------------------------------------|
G|---------------------------------------------------------------|
D|---7-----------------------7-----------------------------------|
A|-------3/5---8---8-7-5---------3/5---10---10/12-12-------------|
D|-8---x-----x---x-------x-8---x-----x----x----------------------|

E|---------------------------------------------------------------|
B|---------------------------------------------------------------|
G|-------5-7----------------------5-7----------------------------|
D|---7---5-7------------------7---5-7----------------------------|
A|-------3-5----------------------3-5----------------------------|
D|-8---x--------------------8---x--------------------------------|x2

E|---------------------------------------------------------------|}
B|---------------------------------------------------------------|}
G|---------------------------------------------------------------|}
D|-----7-----7-----7-----7------7-----7-----7-----7--------------|}
A|---------------------------------------------------------------|}
D|-x-8---x-8---x-8---x-8----x-5---x-5---x-5---x-5----------------|}

E|---------------------------------------------------------------|}
B|---------------------------------------------------------------|}
G|-----7-----7-----7-----7------9-----9-----9-----9--------------|}
D|---------------------------------------------------------------|}
A|-x-5---x-5---x-5---x-5----x-7---x-7---x-7---x-7----------------|}
D|---------------------------------------------------------------|} x2

E|----------------------------------------------------------------|
B|----------------------------------------------------------------|
G|-----10-----10-----10-----10-12-12-12-12-12-12-12-12-12-12-12-12|
D|----------------------------------------------------------------|
A|-x-8----x-8----x-8----x-8----10-10-10-10-10-10-10-10-10-10-10-10|
D|----------------------------------------------------------------|
                                   
E|---------------------------------------------------------------|}
B|---------------------------------------------------------------|}
G|---------------------------------------------------------------|}
D|-8----8--8-8-8---10--10----5---5--5-5-5---3---3----------------|}
A|-8----8--8-8-8---10--10----5---5--5-5-5---3---3----------------|}
D|-8----8--8-8-8---10--10----5---5--5-5-5---3---3----------------|}

E|---------------------------2---2--2-2-2---2---2----------------|}
B|---------------------------3---3--3-3-3---3---3----------------|}
G|---------------------------2---2--2-2-2---2---2----------------|}
D|-8----8--8-8-8---10--10----0---0--0-0-0---0---0----------------|}
A|-8----8--8-8-8---10--10----0---0--0-0-0---0---0----------------|}
D|-8----8--8-8-8---10--10----0---0--0-0-0---0---0----------------|} x2

E|---------------------------------------------------------------|
B|---------------------------------------------------------------|
G|---------------------------------------------------------------|
D|---7-----------------------7-----------------------------------|
A|-------3/5---8---8-7-5---------3/5---10---10-8-7---------------|
D|-8---x-----x---x-------x-8---x-----x----x----------------------|

E|---------------------------------------------------------------|
B|---------------------------------------------------------------|
G|---------------------------------------------------------------|
D|---7-----------------------7-----------------------------------|
A|-------3/5---8---8-7-5---------3/5---10---10/12-12-------------|
D|-8---x-----x---x-------x-8---x-----x----x----------------------|

E|---------------------------------------------------------------|
B|---------------------------------------------------------------|
G|-------5-7----------------------5-7----------------------------|
D|---7---5-7------------------7---5-7----------------------------|
A|-------3-5----------------------3-5----------------------------|
D|-8---x--------------------8---x--------------------------------| x2

E|---------------------------------------------------------------|
B|---------------------------------------------------------------|
G|---------------------------------------------------------------|
D|---7-----------------------7-----------------------------------|
A|-------3/5---8---8-7-5---------3/5---10---10-8-7---------------|
D|-8-----------------------8-------------------------------------|

E|---------------------------------------------------------------|
B|---------------------------------------------------------------|
G|---------------------------------------------------------------|
D|---7-----------------------7-----------------------------------|
A|-------3/5---8---8-7-5---------3/5---10---10/12-12-------------|
D|-8-----------------------8-------------------------------------|

E|---------------------------------------------------------------|}
B|---------------------------------------------------------------|}
G|---------------------------------------------------------------|}
D|-----7-----7-----7-----7------7-----7-----7-----7--------------|}
A|---------------------------------------------------------------|}
D|-x-8---x-8---x-8---x-8----x-5---x-5---x-5---x-5----------------|}

E|---------------------------------------------------------------|}
B|---------------------------------------------------------------|}
G|-----7-----7-----7-----7------9-----9-----9-----9--------------|}
D|---------------------------------------------------------------|}
A|-x-5---x-5---x-5---x-5----x-7---x-7---x-7---x-7----------------|}
D|---------------------------------------------------------------|} x2

E|----------------------------------------------------------------|
B|----------------------------------------------------------------|
G|-----10-----10-----10-----10-12-12-12-12-12-12-12-12-12-12-12-12|
D|----------------------------------------------------------------|
A|-x-8----x-8----x-8----x-8----10-10-10-10-10-10-10-10-10-10-10-10|
D|----------------------------------------------------------------|

E|---------------------------------------------------------------|
B|---------------------------------------------------------------|
G|---------------------------------------------------------------|
D|-8----8--8-8-8---10--10----5---5--5-5-5---3---3----------------|
A|-8----8--8-8-8---10--10----5---5--5-5-5---3---3----------------|
D|-8----8--8-8-8---10--10----5---5--5-5-5---3---3----------------|

E|---------------------------2---2--2-2-2---2---2----------------|
B|---------------------------3---3--3-3-3---3---3----------------|
G|---------------------------2---2--2-2-2---2---2----------------|
D|-8----8--8-8-8---10--10----0---0--0-0-0---0---0----------------|
A|-8----8--8-8-8---10--10----0---0--0-0-0---0---0----------------|
D|-8----8--8-8-8---10--10----0---0--0-0-0---0---0----------------|x2

Bass only for a few bars then

E|---------------------------------------------------------------|
B|---------------------------------------------------------------|
G|---------------------------------------------------------------|
D|---------------------------------------7-----------------------|
A|-------------8-7-5-----------------7h8---8---------------------|
D|-8-----0------------------8-----0------------------------------| x4


E|---------------------------------------------------------------|
B|---------------------------------------------------------------|
G|--------------10--9---9----------------------9/10--14---10-----|
D|-8-----0---------------------8-----0---------------------------|
A|-8-----0------8---7---5------8-----0---------7/8---12---8------|
D|-8-----0---------------------8-----0---------------------------| x4


E|---------------------------------------------------------------|
B|---------------------------------------------------------------|
G|---------------------------------------------------------------|
D|-8----8--8-8-8---10--10----5---5--5-5-5---3---3----------------|
A|-8----8--8-8-8---10--10----5---5--5-5-5---3---3----------------|
D|-8----8--8-8-8---10--10----5---5--5-5-5---3---3----------------|

E|---------------------------2---2--2-2-2---2---2----------------|
B|---------------------------3---3--3-3-3---3---3----------------|
G|---------------------------2---2--2-2-2---2---2----------------|
D|-8----8--8-8-8---10--10----0---0--0-0-0---0---0----------------|
A|-8----8--8-8-8---10--10----0---0--0-0-0---0---0----------------|
D|-8----8--8-8-8---10--10----0---0--0-0-0---0---0----------------|

E|---------------------------------------------------------------|
B|---------------------------------------------------------------|
G|---------------------------------------------------------------|
D|-8----8--8-8-8---10--10----5---5--5-5-5---3---3----------------|
A|-8----8--8-8-8---10--10----5---5--5-5-5---3---3----------------|
D|-8----8--8-8-8---10--10----5---5--5-5-5---3---3----------------|

E|---------------------------2---2--2-2-2---2---2----------------|
B|---------------------------3---3--3-3-3---3---3----------------|
G|---------------------------2---2--2-2-2---2---2----------------|
D|-8----8--8-8-8---10--10----0---0--0-0-0---0---0----------------|
A|-8----8--8-8-8---10--10----0---0--0-0-0---0---0----------------|
D|-8----8--8-8-8---10--10----0---0--0-0-0---0---0----------------|

E|-2---2--2-2-2---2---2----------------|
B|-3---3--3-3-3---3---3----------------|
G|-2---2--2-2-2---2---2----------------|
D|-0---0--0-0-0---0---0----------------|
A|-0---0--0-0-0---0---0----------------|
D|-0---0--0-0-0---0---0----------------|

E|---------------------------------------------------------------|
B|---------------------------------------------------------------|
G|-------5-7-----------------------------------------------------|
D|---7---5-7------------------7---7-5----------------------------|
A|-------3-5----------------------7-5----------------------------|
D|-8---x--------------------8---x-7-5----------------------------| x2
comments
We did not receive enough feedback on this tab! Please rate:
print report bad tab
1 2 3 4 5
I want to post or [tab]
guest
You may want to rate the tab now too:
select rating
Please do not post tabs as comments. Select "correction" instead!