Oops, an error
Loading. Please wait.

Laid To Rest Tab

1,225 views 3 this week
no commentswrite comment
1 2 3 4 5
please rate
Autoscroll
+/-
esc
set tempo
stop
Difficulty
intermediate
WARNING: You are trying to view
                                    content from Ultimate-Guitar.com
                                    in an unauthorized application,
                                    which is prohibited.

                                    Please use an official Ultimate
                                    Guitar Tabs application for iPhone,
                                    iPad or Android to access legitimate
                                    chords, guitar, bass, and drum tabs
                                    from Ultimate-Guitar.com database.

                                    Type "ultimate guitar tabs" in Apple
                                    App Store's or Android Market's
                                    search to find the application.
Laid To Rest
Sinergy

I know this tab is long but it has both guitar parts and is 99% corect

Guitar 1



      E  E   E  E   E  E   E  E      E  E   E  E   E  E   E  E   
D||---8------8------8------7-----|---8------8------8------8-----|
A||--10-----10-----10-----10-----|--10-----10-----10-----10-----|
F||------9------9------9------9--|------9------9------9------9--|
C||------------------------------|------------------------------|
G||------------------------------|------------------------------|
D||------------------------------|------------------------------|


  E  E  E  E  E  E  E  E     E  E  E  E  E  E  E  E   
--5-----5-----5-----5-----|--5-----8-----5-----8-----|
--6-----6-----6-----6-----|--5-----5-----5-----5-----|
-----7-----7-----7-----7--|-----7-----7-----7-----7--|
--------------------------|--------------------------|
--------------------------|--------------------------|
--------------------------|--------------------------|


   E  E   E  E  E  E  E  E     E  E  E  E  E  E  E  E   
---8------8-----7-----7-----|--8-----8-----5-----5-----|
--10-----10-----9-----9-----|--8-----8-----7-----7-----|
------9------9-----9-----9--|-----9-----9-----7-----7--|
----------------------------|--------------------------|
----------------------------|--------------------------|
----------------------------|--------------------------|


  E  E  E  E  E  E  E  E     E  E  E  E  H           H         
--5-----5-----5-----5-----|--4-----------7--------|--L--------|
--6-----6-----6-----6-----|-----5-----5-----------|-----------|
-----7-----7-----8-----8--|--4-----4-----7--------|--L--------|
--------------------------|-----------------------|-----------|
--------------------------|-----------------------|-----------|
--------------------------|-----------------------|-----------|


  E  E  E  E  E  E  Q       E   E  E   E  E   E  E   E   
--------------8-----7----|--8-------------8-------------|
-------------------------|------------------------------|
-------------------------|------------------------------|
-----7-----7-----7-------|------------------------------|
--------7----------------|-----10--7--10-----10--7--10--|
--5-----------------7----|--8-------------8-------------|


                 |--3--|                                  
  E  E  E  E  E  S  S  S Q       E  E  E   E  E  E  Q     
--------------1--0h-1p-0------|--------3p--0-------------|
--------3----------------3----|--------------------------|
-----2-----2------------------|-----0------------0-------|
--0---------------------------|--------------------------|
------------------------------|--3------------3-----2----|
------------------------------|--------------------------|


  E  E  E  E  E  E  Q       E  E  E  E  E  E  E  E   
-------------------------|--------------------------|
--------------1----------|--------------------------|
-----2-----2-----2-------|-----0-----0-----0-----0--|
--------2----------------|--------2-----------2-----|
--0-----------------2----|--3-----------3-----------|
-------------------------|--------------------------|


  E  E  E  E  E  E   E  E      E  E  E  E  H           H         
--------1---------------8--|--10--------------------|-----------|
-----------3--6--8--10-----|------------------------|-----------|
-----2---------------------|------5--4--2--7--------|--L--------|
--0------------------------|---------------6--------|--L--------|
---------------------------|---------------7--------|--L--------|
---------------------------|------------------------|-----------|

Distortion on
  Q.     S S E  S S S E.     Q    S S S   Q     S S S S S  
--------------------------|-------------------------------|
--------------------------|-------------------------------|
--------------------------|---------5---<>4~----L---------|
--------------------------|--2------5---------------------|
--3----------3------3-----|--0----0---0-----------0-0-----|
--1------1-1-1--1-1-1-3---|---------------------------4-3-|


                                \1                
  Q.     S S E  S S S   E.      W                 
-----------------------------|-------------------|
-----------------------------|-------------------|
-----------------------------|-------------------|
-----------------------------|-------------------|
--3----------3------3-<>3~---|--2----------------|
--1------1-1-1--1-1-1--------|--0----------------|


  Q.     S S E  S S S E.     Q    S S S   Q     S S S S S  
--------------------------|-------------------------------|
--------------------------|-------------------------------|
--------------------------|---------5---<>4~----L---------|
--------------------------|--2------5---------------------|
--3----------3------3-----|--0----0---0-----------0-0-----|
--1------1-1-1--1-1-1-3---|---------------------------4-3-|


                             \1                                    
  Q.     S S E  S S S E.     W                   W                 
--------------------------|-------------------|-------------------|
--------------------------|-------------------|-------------------|
--------------------------|-------------------|-------------------|
--------------------------|-------------------|--2----------------|
--3----------3------3-----|--2----------------|--0----------------|
--1------1-1-1--1-1-1-3---|--0----------------|-------------------|


  W                   W                   W                 
-------------------|-------------------|-------------------|
-------------------|-------------------|-------------------|
-------------------|-------------------|-------------------|
-------------------|-------------------|--2----------------|
--2----------------|--2----------------|--0----------------|
--0----------------|--0----------------|-------------------|


  H.           Q       W                   W                 
--------------------|-------------------|-------------------|
--------------------|-------------------|-------------------|
--------------------|-------------------|-------------------|
--2------------5----|--5----------------|--7----------------|
--0------------2----|--3----------------|--5----------------|
--------------------|-------------------|-------------------|


  W                   H        H           W                 
-------------------|--------------------|-------------------|
-------------------|--------------------|-------------------|
-------------------|--------------------|-------------------|
-------------------|--2-----------------|-------------------|
--2----------------|--0--------3--------|--2----------------|
--0----------------|-----------1--------|--0----------------|


  H        H           W                   H        H         
--------------------|-------------------|--------------------|
--------------------|-------------------|--------------------|
--------------------|-------------------|--------------------|
--------------------|--2----------------|--5-----------------|
--2--------2--------|--0----------------|--3--------3--------|
--0--------4--------|-------------------|-----------1--------|


  W                   H        H           W                 
-------------------|--------------------|-------------------|
-------------------|--------------------|-------------------|
-------------------|--------------------|-------------------|
--5----------------|--7-----------------|--2----------------|
--3----------------|--5--------2--------|--0----------------|
-------------------|-----------0--------|-------------------|


  Q.     Q.     Q       Q.     Q.     E   E   
---------------------|-----------------------|
--5------3-----------|--5------3-------------|
----------------5----|----------------5------|
---------------------|-------------------/7--|
---------------------|-----------------------|
---------------------|-----------------------|


                                                 \1      
   Q     E  Q    E  E  E     Q.         Q        Q.      
--------------------------|-----------------------------|
--------10----------------|-----------------------------|
--10--------9-------7-----|--9br------<>9br----<>9------|
-----------------7-----7--|-----------------------------|
--------------------------|-----------------------------|
--------------------------|-----------------------------|


   S  S  S  S  S  S  S  S  S  S S  S  S  S  S  S  
-----12-10-12----12----12----12---12----12----12-|
--10----------13----12----10----8----10----12----|
-------------------------------------------------|
-------------------------------------------------|
-------------------------------------------------|
-------------------------------------------------|


   S  S  S  S  S  S  S  S  S  S  S  S  S  S  S  S  
-----15-13-15-12-15-10-15----15-12-15-10-15----15-|
--13----------------------13----------------13----|
--------------------------------------------------|
--------------------------------------------------|
--------------------------------------------------|
--------------------------------------------------|


   S   S  S  S   S  S  S   S  S  S  S  S  S  S  S  S  
---------20--------19--------17-13----------------13-|
--18S-17----17S-15----15S-13-------13----------13----|
--------------------------------------14----14-------|
-----------------------------------------15----------|
-----------------------------------------------------|
-----------------------------------------------------|


    Q.         Q        Q.             W                 
----------------------------------|---------------------|
----------------------------------|---------------------|
--<>9br------<>9br----<>9brb------|--<>9----------------|
----------------------------------|---------------------|
----------------------------------|---------------------|
----------------------------------|---------------------|


  W                   E  E  E  E  E  E  E  E   
-------------------|--------------------------|
-------------------|--------------------------|
--L----------------|--------------------------|
-------------------|--3--3--3--3--3--3--3--3--|
-------------------|--5--5--5--5--5--5--5--5--|
-------------------|--------------------------|


  E  E  E  E  E  E  E  E     E  E  E  E  E  E  E  E   
--------------------------|--------------------------|
--------------------------|--------------------------|
--------------------------|--------------------------|
--5--5--5--5--5--5--5--5--|--2--2--2--2--2--2--0--0--|
--3--3--3--3--3--3--3--3--|--0--0--0--0--0--0--2--2--|
--------------------------|--------------------------|


  E  E  E  E  E  E  E  E     E  E  E  E  H         
--------------------------|-----------------------|
--------------------------|-----------------------|
--------------------------|-----------------------|
--5--5--5--5--5--5--5--5--|--3--3--3--3--3--------|
--3--3--3--3--3--3--3--3--|--5--5--5--5--5--------|
--------------------------|-----------------------|


    /1\                                          
    W                   Q.     S S E  S S S E.   
---------------------|--------------------------|
---------------------|--------------------------|
--<>9----------------|--------------------------|
---------------------|--------------------------|
---------------------|--3----------3------3-----|
---------------------|--1------1-1-1--1-1-1-3---|


  Q    S S S   Q     S S S S S    Q.     S S E  S S S E.   
-------------------------------|--------------------------|
-------------------------------|--------------------------|
---------5---<>4~----L---------|--------------------------|
--2------5---------------------|--------------------------|
--0----0---0-----------0-0-----|--3----------3------3-----|
---------------------------4-3-|--1------1-1-1--1-1-1-3---|


  \1                                              
  W                   Q.     S S E  S S S   E.    
-------------------|-----------------------------|
-------------------|-----------------------------|
-------------------|-----------------------------|
-------------------|-----------------------------|
--2----------------|--3----------3------3-<>3~---|
--0----------------|--1------1-1-1--1-1-1--------|


  Q    S S S   Q     S S S S S    Q.     S S E  S S S E.   
-------------------------------|--------------------------|
-------------------------------|--------------------------|
---------5---<>4~----L---------|--------------------------|
--2------5---------------------|--------------------------|
--0----0---0-----------0-0-----|--3----------3------3-----|
---------------------------4-3-|--1------1-1-1--1-1-1-3---|


  \1                                                        
  W                   W                   W                 
-------------------|-------------------|-------------------|
-------------------|-------------------|-------------------|
-------------------|-------------------|-------------------|
-------------------|--2----------------|-------------------|
--2----------------|--0----------------|--2----------------|
--0----------------|-------------------|--0----------------|


  W                   W                   H.           Q     
-------------------|-------------------|--------------------|
-------------------|-------------------|--------------------|
-------------------|-------------------|--------------------|
-------------------|--2----------------|--2------------5----|
--2----------------|--0----------------|--0------------2----|
--0----------------|-------------------|--------------------|


  W                   W                   W                 
-------------------|-------------------|-------------------|
-------------------|-------------------|-------------------|
-------------------|-------------------|-------------------|
--5----------------|--7----------------|-------------------|
--3----------------|--5----------------|--2----------------|
-------------------|-------------------|--0----------------|


  H        H           W                   H        H         
--------------------|-------------------|--------------------|
--------------------|-------------------|--------------------|
--------------------|-------------------|--------------------|
--2-----------------|-------------------|--------------------|
--0--------3--------|--2----------------|--2--------2--------|
-----------1--------|--0----------------|--0--------4--------|


  W                   H        H           W                 
-------------------|--------------------|-------------------|
-------------------|--------------------|-------------------|
-------------------|--------------------|-------------------|
--2----------------|--5-----------------|--5----------------|
--0----------------|--3--------3--------|--3----------------|
-------------------|-----------1--------|-------------------|


  H        H           E  E  E  E  E  Q    S S    Q.     Q.     Q     
--------------------|--------------------------|---------------------|
--------------------|--------------------------|----------------7----|
--------------------|----------------------4-6-|--7------9-----------|
--7-----------------|--2--2--2--2--2-----------|---------------------|
--5--------2--------|--0--0--0--0--0-----------|---------------------|
-----------0--------|--------------------------|---------------------|


   H.           E  S S    Q.     Q.     Q     
-----------------------|---------------------|
--10------------L------|----------------7----|
-------------------4-6-|--7------9-----------|
-----------------------|---------------------|
-----------------------|---------------------|
-----------------------|---------------------|


  Q     Q      Q.     S S    Q.     Q.     Q     
--------------------------|---------------------|
--8----10b----10----------|----------------7----|
----------------------4-6-|--7------9-----------|
--------------------------|---------------------|
--------------------------|---------------------|
--------------------------|---------------------|


   Q     S  S  S  S  Q.      S S    Q.     Q.     Q     
-----------17-12-12-17S----------|---------------------|
--10-----L-----------------------|----------------7----|
-----------------------------4-6-|--7------9-----------|
---------------------------------|---------------------|
---------------------------------|---------------------|
---------------------------------|---------------------|


  Q     Q      Q.     S  S    Q.      Q.     Q     
---------------------------|-----------------7----|
--8----10b----10-----------|--8------10-----------|
----------------------9-11-|----------------------|
---------------------------|----------------------|
---------------------------|----------------------|
---------------------------|----------------------|


   Q    S  S  S  S  Q.     S  S    Q.      Q.     Q     
--10----L-10-------10-----------|-----------------7----|
-------------10-10--------------|--8------10-----------|
---------------------------9-11-|----------------------|
--------------------------------|----------------------|
--------------------------------|----------------------|
--------------------------------|----------------------|


  Q     Q      Q.      S  S     Q.      Q.      Q     
--8----10b----10------------|----------10------12----|
----------------------10-12-|--13--------------------|
----------------------------|------------------------|
----------------------------|------------------------|
----------------------------|------------------------|
----------------------------|------------------------|


   Q     S  S  S  S  Q.      S  S     Q.      Q.      Q     
--15-----L-19-------19------------|----------10------12----|
--------------20-20---------10-12-|--13--------------------|
----------------------------------|------------------------|
----------------------------------|------------------------|
----------------------------------|------------------------|
----------------------------------|------------------------|


   /2    /2    /2    /2                                    
   Q     Q     Q     Q         Q       Q       Q     Q     
--13----17----15----19----|--/17~----/17~----/17~---------|
--------------------------|-------------------------------|
--------------------------|-------------------------------|
--------------------------|-------------------------------|
--------------------------|-------------------------------|
--------------------------|-------------------------------|


   Q     S  S  S  S  E     E     S  S  S S  
-----------17-19-20-20br--20br--19-20-17---|
--20~----L---------------------------------|
-------------------------------------------|
-------------------------------------------|
-------------------------------------------|
-------------------------------------------|


                       |--6--|  |--6--|  |--6--|  |--6--|  
   Q      S  S  S   S  S  S  S  S  S  S  S  S  S  S  S  S  
------------17-----17-22-20-17----------------------------|
--20b-----L----20b-------------20-17----20-17-------------|
-------------------------------------19-------19-17-------|
----------------------------------------------------19-17-|
----------------------------------------------------------|
----------------------------------------------------------|


   T  T  T  T  T  T  T  T  T  T  T  T  T  T  T  T  T  T  T  T  T  T  T
----------------------------------------------------------------------
----------------------------------------------------------------------
--10-10-12-12-14-14-14-14-12-12-14-14-16-16-16-16-14-14-16-16-17-17-17
----------------------------------------------------------------------
----------------------------------------------------------------------
----------------------------------------------------------------------


    /2\      /2\             /1            /1     
    Q.       H        E      H        Q    E  E   
-------------------------|-----------------------|
--<>7--------------------|--10--------8----------|
-----------<>9--------L--|-----------------9--7--|
-------------------------|-----------------------|
-------------------------|-----------------------|
-------------------------|-----------------------|


  /1   /1 /1 /1        
  Q    E  E  H         
----------------------|
----------------------|
--9----7--5-----------|
-------------7--------|
----------------------|
----------------------|


   T  T  T  T  T  T  T  T  T  T  T  T  T  T  T  T  T  T  T T  T  T T  
--12-10-13-12----------10---------------------------------------------
--------------15-13-12----13-12-10-13-12-10-13-12-10------------------
-----------------------------------------------------12-10-9-12-10-9-1
----------------------------------------------------------------------
----------------------------------------------------------------------
----------------------------------------------------------------------


   T T  T T  T  T T  T  T T  T T  T  T T  T  T  T T  T T T  T T T T T 
----------------------------------------------------------------------
----------------------------------------------------------------------
--10-9-10-9-----------------------------------------------------------
------------12-10-9-12-10-9-10-9--------------------------------------
---------------------------------12-10-8-10-12-10-8-10-8-7----------8-
-----------------------------------------------------------10-8-7-5---


   W                    W                   W                 
---------------------|-------------------|-------------------|
---------------------|-------------------|-------------------|
---------------------|-------------------|-------------------|
---------------------|-------------------|-------------------|
--12~----------------|--2----------------|--2----------------|
---------------------|--0----------------|--0----------------|


  W                   H.           Q       W                 
-------------------|--------------------|-------------------|
-------------------|--------------------|-------------------|
-------------------|--------------------|-------------------|
--2----------------|--2------------5----|--5----------------|
--0----------------|--0------------2----|--3----------------|
-------------------|--------------------|-------------------|


  W                   W                   H        H         
-------------------|-------------------|--------------------|
-------------------|-------------------|--------------------|
-------------------|-------------------|--------------------|
--7----------------|-------------------|--2-----------------|
--5----------------|--2----------------|--0--------3--------|
-------------------|--0----------------|-----------1--------|


  W                   H        H           W                 
-------------------|--------------------|-------------------|
-------------------|--------------------|-------------------|
-------------------|--------------------|-------------------|
-------------------|--------------------|--2----------------|
--2----------------|--2--------2--------|--0----------------|
--0----------------|--0--------4--------|-------------------|


  H        H           W                   H        H         
--------------------|-------------------|--------------------|
--------------------|-------------------|--------------------|
--------------------|-------------------|--------------------|
--5-----------------|--5----------------|--7-----------------|
--3--------3--------|--3----------------|--5--------2--------|
-----------1--------|-------------------|-----------0--------|


  W                   W                  
-------------------|-------------------||
-------------------|-------------------||
-------------------|-------------------||
--2----------------|--L----------------||
--0----------------|--L----------------||
-------------------|-------------------||


Guitar 2

     H.           Q       W                   W                 
D||--5------------4----|--3----------------|--1----------------|
A||--5-----------------|-------------------|-------------------|
F||--------------------|-------------------|-------------------|
C||--------------------|-------------------|-------------------|
G||--0------------0----|--0----------------|--0----------------|
D||--------------------|-------------------|-------------------|


  W                   H        H           H        H         
--0----------------|--5--------4--------|--3--------2--------|
-------------------|--------------------|--------------------|
-------------------|--------------------|--------------------|
-------------------|--------------------|--------------------|
--0----------------|--0-----------------|--------------------|
-------------------|-----------4--------|--3--------2--------|


  W                   W                   H         
--1----------------|--0----------------|--L--------|
-------------------|-------------------|-----------|
-------------------|-------------------|-----------|
-------------------|-------------------|-----------|
-------------------|-------------------|-----------|
--1----------------|--0----------------|--L--------|


  E  E  E  E  E  E  E  E      E   E  E   E  E   E  E   E   
-----------5--------7-----|-------------------------------|
--------------------------|-------------------------------|
--------------5-----------|-------------------------------|
-----7-----------7-----5--|--10---------------------------|
--------7-----------------|------10--7--10-----10--7--10--|
--5-----------------------|-----------------8-------------|


                 |--3--|                                  
  E  E  E  E  E  S  S  S Q       E  E  E   E  E  E  Q     
--------------1--0h-1p-0------|--------3p--0-------------|
--------3----------------3----|--------------------------|
-----2-----2------------------|-----0------------0-------|
--0---------------------------|--------------------------|
------------------------------|--3------------3-----2----|
------------------------------|--------------------------|


  E  E  E  E  E  E  Q       E  E  E  E  E  E  E  E   
-------------------------|--------------------------|
--------------1----------|--------------------------|
-----2-----2-----2-------|-----0-----0-----0-----0--|
--------2----------------|--------2-----------2-----|
--0-----------------2----|--3-----------3-----------|
-------------------------|--------------------------|


  E  E  E  E   E  E  E   E      E  E  E  E   H           H         
--------5---------7--8--12--|---------------16--------|--L--------|
-----------6--10------------|--12---------------------|-----------|
----------------------------|-------------------------|-----------|
-----7----------------------|------7--6---------------|-----------|
--5-------------------------|------------9------------|-----------|
----------------------------|-------------------------|-----------|

Distortion on
  Q.     S S E  S S S E.     Q    S S S Q    S S S S S  
--------------------------|----------------------------|
--------------------------|----------------------------|
--------------------------|---------5---4----L---------|
--------------------------|--2------5---4----L---------|
--3----------3------3-----|--0----0---0--------0-0-----|
--1------1-1-1--1-1-1-3---|------------------------4-3-|


                             \1                
  Q.     S S E  S S S E.     W                 
--------------------------|-------------------|
--------------------------|-------------------|
--------------------------|-------------------|
--------------------------|-------------------|
--3----------3------3-----|--2----------------|
--1------1-1-1--1-1-1-3---|--0----------------|


  Q.     S S E  S S S E.     Q    S S S Q    S S S S S  
--------------------------|----------------------------|
--------------------------|----------------------------|
--------------------------|---------5---4----L---------|
--------------------------|--2------5---4----L---------|
--3----------3------3-----|--0----0---0--------0-0-----|
--1------1-1-1--1-1-1-3---|------------------------4-3-|


                             \1                                    
  Q.     S S E  S S S E.     W                   W                 
--------------------------|-------------------|-------------------|
--------------------------|-------------------|-------------------|
--------------------------|-------------------|-------------------|
--------------------------|-------------------|--2----------------|
--3----------3------3-----|--2----------------|--0----------------|
--1------1-1-1--1-1-1-3---|--0----------------|-------------------|


  W                   W                   W                 
-------------------|-------------------|-------------------|
-------------------|-------------------|-------------------|
-------------------|-------------------|-------------------|
-------------------|-------------------|--2----------------|
--2----------------|--2----------------|--0----------------|
--0----------------|--0----------------|-------------------|


  H.           Q       W                   W                 
--------------------|-------------------|-------------------|
--------------------|-------------------|-------------------|
--------------------|-------------------|-------------------|
--2------------5----|--5----------------|--7----------------|
--0------------2----|--3----------------|--5----------------|
--------------------|-------------------|-------------------|


  W                   H        H           W                 
-------------------|--------------------|-------------------|
-------------------|--------------------|-------------------|
-------------------|--------------------|-------------------|
-------------------|--2-----------------|-------------------|
--2----------------|--0--------3--------|--2----------------|
--0----------------|-----------1--------|--0----------------|


  H        H           W                   H        H         
--------------------|-------------------|--------------------|
--------------------|-------------------|--------------------|
--------------------|-------------------|--------------------|
--------------------|--2----------------|--5-----------------|
--2--------2--------|--0----------------|--3--------3--------|
--0--------4--------|-------------------|-----------1--------|


  W                   H        H           W                 
-------------------|--------------------|-------------------|
-------------------|--------------------|-------------------|
-------------------|--------------------|-------------------|
--5----------------|--7-----------------|--2----------------|
--3----------------|--5--------2--------|--0----------------|
-------------------|-----------0--------|-------------------|


  E  E  E  E  E  E  E  E     E  E  E  E  E  E  E  E   
--------------------------|--------------------------|
--------------------------|--------------------------|
--------------------------|--------------------------|
--2--2--2--2--2--2--5--5--|--5--5--5--5--5--5--5--5--|
--0--0--0--0--0--0--2--2--|--3--3--3--3--3--3--3--3--|
--------------------------|--------------------------|


  E  E  E  E  E  E  E  E     E  E  E  E  E  S S S E.    
--------------------------|----------------------------|
--------------------------|----------------------------|
--------------------------|----------------------------|
--3--3--3--3--3--3--3--3--|--5--5--5--5--5-------------|
--5--5--5--5--5--5--5--5--|--3--3--3--3--3--3-3-3-2~---|
--------------------------|----------------------------|


  E  E  E  E  E  E  E  E     E  E  E  E  E  E  E  E   
--------------------------|--------------------------|
--------------------------|--------------------------|
--------------------------|--------------------------|
--2--2--2--2--2--2--0--0--|--5--5--5--5--5--5--5--5--|
--0--0--0--0--0--0--2--2--|--3--3--3--3--3--3--3--3--|
--------------------------|--------------------------|


                                             \1       
  E  E  E  E  E  E  E  E     Q.     Q        Q.       
--------------------------|--------------<>(12)------|
--------------------------|--------------------------|
--------------------------|--------------------------|
--3--3--3--3--3--3--3--3--|--------------------------|
--5--5--5--5--5--5--5--5--|--2------L----------------|
--------------------------|--0------L----------------|


  E  E  E  E  E  E  E  E     E  E  E  E  E  E  E  E   
--------------------------|--------------------------|
--------------------------|--------------------------|
--------------------------|--------------------------|
--2--2--2--2--2--2--0--0--|--5--5--5--5--5--5--5--5--|
--0--0--0--0--0--0--2--2--|--3--3--3--3--3--3--3--3--|
--------------------------|--------------------------|


  E  E  E  E  E  E  E  E     E  E  E  E  E  S S S   E.    
--------------------------|------------------------------|
--------------------------|------------------------------|
--------------------------|------------------------------|
--3--3--3--3--3--3--3--3--|--5--5--5--5--5---------------|
--5--5--5--5--5--5--5--5--|--3--3--3--3--3--3-3-3-<>2~---|
--------------------------|------------------------------|


  E  E  E  E  E  E  E  E     E  E  E  E  E  E  E  E   
--------------------------|--------------------------|
--------------------------|--------------------------|
--------------------------|--------------------------|
--2--2--2--2--2--2--0--0--|--5--5--5--5--5--5--5--5--|
--0--0--0--0--0--0--2--2--|--3--3--3--3--3--3--3--3--|
--------------------------|--------------------------|


  E  E  E  E  H           W                 
-----------------------|-------------------|
-----------------------|-------------------|
-----------------------|-------------------|
--3--3--3--3--3--------|--9----------------|
--5--5--5--5--5--------|--7----------------|
-----------------------|-------------------|


  Q.     S S E  S S S E.     Q    S S S Q    S S S S S  
--------------------------|----------------------------|
--------------------------|----------------------------|
--------------------------|---------5---4----L---------|
--------------------------|--2------5---4----L---------|
--3----------3------3-----|--0----0---0--------0-0-----|
--1------1-1-1--1-1-1-3---|------------------------4-3-|


                             \1                
  Q.     S S E  S S S E.     W                 
--------------------------|-------------------|
--------------------------|-------------------|
--------------------------|-------------------|
--------------------------|-------------------|
--3----------3------3-----|--2----------------|
--1------1-1-1--1-1-1-3---|--0----------------|


  Q.     S S E  S S S E.     Q    S S S Q    S S S S S  
--------------------------|----------------------------|
--------------------------|----------------------------|
--------------------------|---------5---4----L---------|
--------------------------|--2------5---4----L---------|
--3----------3------3-----|--0----0---0--------0-0-----|
--1------1-1-1--1-1-1-3---|------------------------4-3-|


                             \1                                    
  Q.     S S E  S S S E.     W                   W                 
--------------------------|-------------------|-------------------|
--------------------------|-------------------|-------------------|
--------------------------|-------------------|-------------------|
--------------------------|-------------------|--2----------------|
--3----------3------3-----|--2----------------|--0----------------|
--1------1-1-1--1-1-1-3---|--0----------------|-------------------|


  W                   W                   W                 
-------------------|-------------------|-------------------|
-------------------|-------------------|-------------------|
-------------------|-------------------|-------------------|
-------------------|-------------------|--2----------------|
--2----------------|--2----------------|--0----------------|
--0----------------|--0----------------|-------------------|


  H.           Q       W                   W                 
--------------------|-------------------|-------------------|
--------------------|-------------------|-------------------|
--------------------|-------------------|-------------------|
--2------------5----|--5----------------|--7----------------|
--0------------2----|--3----------------|--5----------------|
--------------------|-------------------|-------------------|


  W                   H        H           W                 
-------------------|--------------------|-------------------|
-------------------|--------------------|-------------------|
-------------------|--------------------|-------------------|
-------------------|--2-----------------|-------------------|
--2----------------|--0--------3--------|--2----------------|
--0----------------|-----------1--------|--0----------------|


  H        H           W                   H        H         
--------------------|-------------------|--------------------|
--------------------|-------------------|--------------------|
--------------------|-------------------|--------------------|
--------------------|--2----------------|--5-----------------|
--2--------2--------|--0----------------|--3--------3--------|
--0--------4--------|-------------------|-----------1--------|


  W                   H        H           E  E  E  E  E  Q    S S  
-------------------|--------------------|--------------------------|
-------------------|--------------------|--------------------------|
-------------------|--------------------|----------------------4-6-|
--5----------------|--7-----------------|--2--2--2--2--2-----------|
--3----------------|--5--------2--------|--0--0--0--0--0-----------|
-------------------|-----------0--------|--------------------------|


  Q.     Q.     Q       H.           E  S S    Q.     Q.     Q     
---------------------|----------------------|---------------------|
---------------------|----------------------|---------------------|
--4------6-----------|--6------------L--4-6-|--4------6-----------|
----------------7----|----------------------|----------------7----|
---------------------|----------------------|---------------------|
---------------------|----------------------|---------------------|


  Q    Q     Q.     S S    Q.       Q.      Q     
------------------------|------------------------|
------------------------|------------------------|
--4----6b----6------4-6-|--4------<>6~-----------|
------------------------|-------------------7----|
------------------------|------------------------|
------------------------|------------------------|


  Q    S  S  S  S  Q.     S S    Q.     Q.     Q     
---------12-------12----------|---------------------|
------------14-14-------------|---------------------|
--6----L------------------4-6-|--4------6-----------|
------------------------------|----------------7----|
------------------------------|---------------------|
------------------------------|---------------------|


  Q    Q     Q.     S  S    Q.      Q.      Q     
-------------------------|-----------------------|
-------------------------|---------10~-----------|
--4----6b----6------9-11-|--9---------------7----|
-------------------------|-----------------------|
-------------------------|-----------------------|
-------------------------|-----------------------|


  Q    S  S  S  S  Q.      S  S    Q.      Q.      Q     
---------10-------10S-----------|-----------------------|
------------10-10---------------|---------10~-----------|
---------------------------9-11-|--9---------------7----|
--7----L------------------------|-----------------------|
--------------------------------|-----------------------|
--------------------------------|-----------------------|


  Q    Q     Q.      S  S     Q.      Q.      Q     
--------------------------|------------------------|
-------7b----7------10-12-|--10------12------------|
--9-----------------------|------------------12----|
--------------------------|------------------------|
--------------------------|------------------------|
--------------------------|------------------------|


   Q    S  S  S  S  Q.      S  S     Q.      Q.        Q     
----------19-------19------------|--------------------------|
-------------20-20---------10-12-|--10------12br------------|
---------------------------------|--------------------12----|
--12----L------------------------|--------------------------|
---------------------------------|--------------------------|
---------------------------------|--------------------------|


   /2    /2    /2    /2                                    
   Q     Q     Q     Q         Q       Q       Q     Q     
--------------------------|-------------------------------|
--10----13----12----15----|--/13~----/13~----/13~---------|
--------------------------|-------------------------------|
--------------------------|-------------------------------|
--------------------------|-------------------------------|
--------------------------|-------------------------------|


  Q.     S S E  S S S E.     Q    S S S Q    S S S S S  
--------------------------|----------------------------|
--------------------------|----------------------------|
--------------------------|---------5---4----L---------|
--------------------------|--2------5---4----L---------|
--3----------3------3-----|--0----0---0--------0-0-----|
--1------1-1-1--1-1-1-3---|------------------------4-3-|


                                           \1/      
  Q.     S S E  S S S E.     Q.     Q      Q.       
--------------------------|--------------(12)------|
--------------------------|------------------------|
--------------------------|------------------------|
--------------------------|------------------------|
--3----------3------3-----|--2------L--------------|
--1------1-1-1--1-1-1-3---|--0------L--------------|


  Q.     S S E  S S S E.     Q    S S S Q    S S S S S  
--------------------------|----------------------------|
--------------------------|----------------------------|
--------------------------|---------5---4----L---------|
--------------------------|--2------5---4----L---------|
--3----------3------3-----|--0----0---0--------0-0-----|
--1------1-1-1--1-1-1-3---|------------------------4-3-|


  Q.     S S E  S S S E.     W                   W                 
--------------------------|-------------------|-------------------|
--------------------------|-------------------|-------------------|
--------------------------|-------------------|-------------------|
--------------------------|-------------------|--2----------------|
--3----------3------3-----|--2----------------|--0----------------|
--1------1-1-1--1-1-1-3---|--0----------------|-------------------|


  W                   W                   W                 
-------------------|-------------------|-------------------|
-------------------|-------------------|-------------------|
-------------------|-------------------|-------------------|
-------------------|-------------------|--2----------------|
--2----------------|--2----------------|--0----------------|
--0----------------|--0----------------|-------------------|


  H.           Q       W                   W                 
--------------------|-------------------|-------------------|
--------------------|-------------------|-------------------|
--------------------|-------------------|-------------------|
--2------------5----|--5----------------|--7----------------|
--0------------2----|--3----------------|--5----------------|
--------------------|-------------------|-------------------|


  W                   H        H           W                 
-------------------|--------------------|-------------------|
-------------------|--------------------|-------------------|
-------------------|--------------------|-------------------|
-------------------|--2-----------------|-------------------|
--2----------------|--0--------3--------|--2----------------|
--0----------------|-----------1--------|--0----------------|


  H        H           W                   H        H         
--------------------|-------------------|--------------------|
--------------------|-------------------|--------------------|
--------------------|-------------------|--------------------|
--------------------|--2----------------|--5-----------------|
--2--------2--------|--0----------------|--3--------3--------|
--0--------4--------|-------------------|-----------1--------|


  W                   H        H           W                 
-------------------|--------------------|-------------------|
-------------------|--------------------|-------------------|
-------------------|--------------------|-------------------|
--5----------------|--7-----------------|--2----------------|
--3----------------|--5--------2--------|--0----------------|
-------------------|-----------0--------|-------------------|


  W                  
-------------------||
-------------------||
-------------------||
--L----------------||
--L----------------||
-------------------||




Duration Legend
---------------
W - whole
H - half
Q - quarter
E - 8th
S - 16th
T - 32nd
X - 64th
. - note dotted
|-n-|  - n-tuplets


Tablature Legend
----------------
L - tied note
x - dead note
g - grace note
(n) - ghost note
> - accentuded note
NH - natural harmonic
AH - artificial harmonic
TH - tapped harmonic
SH - semi harmonic
PH - pitch harmonic
h - hammer on
p - pull off
b - bend
br - bendRelease
pb - preBend
pbr - preBendRelease
brb - bendReleaseBend
\n/ - tremolo bar dip
\n - tremolo bar dive
-/n - tremolo bar Release up
/n\ - tremolo bar inverted dip
/n - tremolo bar return
-\n - tremolo bar Release down
S - shift slide
s - legato slide
/ -  slide into from below or out of upwards
\ -  slide into from above or out of downwards
~ - vibrato
W - wide vibrato
tr - trill
TP - tremolo picking
T - tapping
S - slap
P - pop
< - fade in
^ - brush up
v - brush down
comments
We did not receive enough feedback on this tab! Please rate:
1 2 3 4 5
I want to post or [tab]
guest
You may want to rate the tab now too:
select rating
Please do not post tabs as comments. Select "correction" instead!