Oops, an error
Loading. Please wait.

Suicide By My Side Tab

ver1
ver1

Whole song

Interactive

More versions @911Tabs.com
1,499 views 1 this week
no commentswrite comment
1 2 3 4 5
excellent!
x 2
Autoscroll
+/-
esc
set tempo
stop
WARNING: You are trying to view
                                    content from Ultimate-Guitar.com
                                    in an unauthorized application,
                                    which is prohibited.

                                    Please use an official Ultimate
                                    Guitar Tabs application for iPhone,
                                    iPad or Android to access legitimate
                                    chords, guitar, bass, and drum tabs
                                    from Ultimate-Guitar.com database.

                                    Type "ultimate guitar tabs" in Apple
                                    App Store's or Android Market's
                                    search to find the application.
Sinergy - Suicide By My Side
Transcribed By: Justin Simms (reaper@slayerized.com)

Gtr I (D G C F A D) - 'Gtr I'
Gtr II (D G C F A D) - 'Gtr II'

  Q=136
 4/4
  Gtr I
  E H                E   E  E   E H                E    Q
|-----------------------------|-----------------------------|
|-----------------------------|-----------------------------|
|-----------------------------|-----------------------------|
|---------------------------7-|-----------------------------|
|-7----------------------7--5-|-7---------------------------|
|-5----------------------5----|-5----------------------[5]--|
|
| Gtr II
|   PM----|      PM----|          PM----|      PM----|
| E S S S S S  S S S S S E  E   E S S S S S  S S S S S  Q
|-----------------------------|-----------------------------|
|-----------------------------|-----------------------------|
|-9---------7-/9---------9-10-|-9---------7-/9--------------|
|-7---------5-/7---------7--7-|-7---------5-/7---------[7]--|
|---0-0-0-0------0-0-0-0------|---0-0-0-0------0-0-0-0------|
|-----------------------------|-----------------------------|


  E H                E   E  E
|-----------------------------|
|-----------------------------|
|-----------------------------|
|---------------------------7-|
|-7----------------------7--5-|
|-5----------------------5----|
|
|   PM----|      PM----|
| E S S S S S  S S S S S E  E
|-----------------------------|
|-----------------------------|
|-9---------7-/9---------9-10-|
|-7---------5-/7---------7--7-|
|---0-0-0-0------0-0-0-0------|
|-----------------------------|


   S  S  S  S  S  S  S  S  S  S  S  S  S  S  S  S
|-------------12----------------------------------|
|----------------13-------13-12-------------------|
|-14-12-------------14-12-------14-12-------------|
|-------15-14-------------------------14-12-------|
|-------------------------------------------15-12-|
|-------------------------------------------------|
|
|  S  S  S  S  S  S  S  S  S  S  S  S  S  S  S  S
|-------------------------------------------------|
|--------------8----------------------------------|
|-10--9--7--------9--7----------------------------|
|----------10----------10--7----------------------|
|----------------------------10--8--7-------------|
|-------------------------------------10--8--7--5-|


    PM----|      PM----|          PM----|      PM----|
  E S S S S S  S S S S S E  E   E S S S S S  S S S S S  Q
|-----------------------------|------------------------------|
|-----------------------------|------------------------[5]---|
|-9---------7-/9---------9-10-|-9---------7-/9---------------|
|-7---------5-/7---------7--7-|-7---------5-/7---------------|
|---0-0-0-0------0-0-0-0------|---0-0-0-0------0-0-0-0-------|
|-----------------------------|------------------------------|
|
|   PM----|      PM----|          PM----|      PM----|
| E S S S S S  S S S S S E  E   E S S S S S  S S S S S  S
|-----------------------------|------------------------------|
|-----------------------------|------------------------------|
|-9---------7-/9---------9-10-|-9---------7-/9---------------|
|-7---------5-/7---------7--7-|-7---------5-/7---------[5]---|
|---0-0-0-0------0-0-0-0------|---0-0-0-0------0-0-0-0-------|
|-----------------------------|------------------------------|


    PM----|      PM----|
  E S S S S S  S S S S S E  E   S S S S  S S S S  S S S S Q
|-----------------------------|-8-0-0-0-12-0-0-0-10-0-0-0----|
|-----------------------------|---------------------------3--|
|-9---------7-/9---------9-10-|------------------------------|
|-7---------5-/7---------7--7-|------------------------------|
|---0-0-0-0------0-0-0-0------|------------------------------|
|-----------------------------|------------------------------|
|
|   PM----|      PM----|
| E S S S S S  S S S S S E  E   S S S S  S S S S  S S S S S
|-----------------------------|-5-0-0-0--8-0-0-0--7-0-0-0----|
|-----------------------------|---------------------------3--|
|-9---------7-/9---------9-10-|------------------------------|
|-7---------5-/7---------7--7-|------------------------------|
|---0-0-0-0------0-0-0-0------|------------------------------|
|-----------------------------|------------------------------|


    PM----|      PM----|          PM----|      PM----|
  E S S S S S  S S S S S E  E   E S S S S S  S S S S S  Q
|-----------------------------|------------------------------|
|-----------------------------|------------------------[5]---|
|-9---------7-/9---------9-10-|-9---------7-/9---------------|
|-7---------5-/7---------7--7-|-7---------5-/7---------------|
|---0-0-0-0------0-0-0-0------|---0-0-0-0------0-0-0-0-------|
|-----------------------------|------------------------------|
|
|   PM----|      PM----|          PM----|      PM----|
| E S S S S S  S S S S S E  E   E S S S S S  S S S S S  S
|-----------------------------|------------------------------|
|-----------------------------|------------------------------|
|-9---------7-/9---------9-10-|-9---------7-/9---------------|
|-7---------5-/7---------7--7-|-7---------5-/7---------------|
|---0-0-0-0------0-0-0-0------|---0-0-0-0------0-0-0-0-[7]---|
|-----------------------------|------------------------------|


    PM----|      PM----|
  E S S S S S  S S S S S E  E
|-----------------------------|
|-----------------------------|
|-9---------7-/9---------9-10-|
|-7---------5-/7---------7--7-|
|---0-0-0-0------0-0-0-0------|
|-----------------------------|
|
|   PM----|      PM----|
| E S S S S S  S S S S S E  E
|-----------------------------|
|-----------------------------|
|-9---------7-/9---------9-10-|
|-7---------5-/7---------7--7-|
|---0-0-0-0------0-0-0-0------|
|-----------------------------|


   S  S  S  S  S  S  S  S  S  S  S  S  S  S  S  S
|-------------12----------------------------------|
|----------------13-------13-12-------------------|
|-14-12-------------14-12-------14-12-------------|
|-------15-14-------------------------14-12-------|
|-------------------------------------------15-12-|
|-------------------------------------------------|
|
|  S  S  S  S  S  S  S  S  S  S  S  S  S  S  S  S
|-------------------------------------------------|
|--------------8----------------------------------|
|-10--9--7--------9--7----------------------------|
|----------10----------10--7----------------------|
|----------------------------10--8--7-------------|
|-------------------------------------10--8--7--5-|


    E S S S E S E E  Q    3x Q  Q  Q  Q
||------------------------||-------------|
||o----------------------o||-------------|
||------------------------||-------------|
||--------5---------[7]---||-5-----2-----|
||o----------------------o||-3--3--0--5--|
||--3-3-3---3-3-3-5-------||----1-----3--|
|
|   E S S S E S E E  Q    3x Q  Q  Q  Q
||------------------------||-------------|
||o----------------------o||-------------|
||------------------------||-------------|
||--------5---------[7]---||-5-----2-----|
||o----------------------o||-3--3--0--5--|
||--3-3-3---3-3-3-5-------||----1-----3--|


    PM|     PM--|        PM|     PM--|        PM|     PM--|
  E S S S E S E E Q    E S S S E S E E Q    E S S S E S E E Q    Q  Q  Q   Q
|--------------------|--------------------|--------------------|--------------|
|--------------------|--------------------|--------------------|--------------|
|--------------------|--------------------|--------------------|--------------|
|-------3---------5--|-------5---------7--|-------3---------5--|-5--7--9--10--|
|--------------------|--------------------|--------------------|-3--5--7---8--|
|-1-1-1---1-1-1-3----|-3-3-3---3-3-3-5----|-1-1-1---1-1-1-3----|--------------|
|
|   PM|     PM--|        PM|     PM--|        PM|     PM--|
| E S S S E S E E Q    E S S S E S E E Q    E S S S E S E E Q    Q  Q  Q   Q
|--------------------|--------------------|--------------------|--------------|
|--------------------|--------------------|--------------------|--------------|
|--------------------|--------------------|--------------------|--------------|
|-------3---------5--|-------5---------7--|-------3---------5--|-5--7--9--10--|
|--------------------|--------------------|--------------------|-3--5--7---8--|
|-1-1-1---1-1-1-3----|-3-3-3---3-3-3-5----|-1-1-1---1-1-1-3----|--------------|


  W        S  S S  S     +S   +S      +E  Q..
|----------7h10p7--------------------------------|
|-----------------10b12r(10)-(10)b12r(10)-8------|
|------------------------------------------------|
|------------------------------------------------|
|------------------------------------------------|
|-1----------------------------------------------|
|
| W        S  S S  S     +S   +S      +E  H
|----------7-10-7-------------------------7------|
|-----------------10b12r(10)-(10)b12r(10)--------|
|------------------------------------------------|
|------------------------------------------------|
|------------------------------------------------|
|-1----------------------------------------------|


  PM--|                      PM--|   PM  PM
  S S E H.                E  E E E E S E S E
|----------------------|---------------------|
|----------------------|---------------------|
|----------------------|---------------------|
|-------4--------------|---------------------|
|-------4--------------|-----------5---2---4-|
|-2-2-2-2--------------|-----2-2-2-3-3-0-0-2-|
|
|     PM   PM  PM  PM        PM  PM  PM  PM
| E   E E  E E S E S E   +E  E E E E S E S E
|----------------------|---------------------|
|----------------------|---------------------|
|-------6----7---4---6-|-(6)---2---4-------6-|
|-----4-4--4-5-5-2-2-4-|-(4)-0-0-0-2-2-6-4-4-|
|----------------------|---------------4-----|
|----------------------|---------------------|


                              PM  PM
  +H        E.   E.   E   +E  E E E E. E. E
|-----------------------|--------------------|
|-----------------------|--------------------|
|-----------6----4----2-|-(2)---2---9--4--6--|
|-----------4----2----0-|-(0)-0-0-0-7--2--4--|
|-(4)-------------------|--------------------|
|-(2)-------------------|--------------------|
|
|     PM  PM   PM   PM        PM  PM
| +E  E E E S  E S  E E   +E  E E E E. E. E
|-----------------------|--------------------|
|-----------------------|--------------------|
|-(6)---6---7----4----6-|-(6)---2---9--4--6--|
|-(4)-4-4-4-5--5-2--2-4-|-(4)-0-0-0-7--2--4--|
|-----------------------|--------------------|
|-----------------------|--------------------|


   PM-|                      PM--|   PM  PM
  +E  E H.                E  E E E E S E S E
|----------------------|---------------------|
|----------------------|---------------------|
|-(6)------------------|---------------------|
|-(4)---4--------------|---------------------|
|-------4--------------|-----------5---2---4-|
|-----2-2--------------|-----2-2-2-3-3-0-0-2-|
|
|     PM   PM  PM  PM        PM--|   PM  PM
|  E  E E  E E S E S E   +E  E E E E S E S E
|----------------------|---------------------|
|----------------5---7-|-(7)-----------------|
|-------6----7---------|-----------4-------6-|
|-----4-4--4-5-5-2-2-4-|-(4)-4-4-4-2-2-6-4-4-|
|----------------------|---------------4-----|
|----------------------|---------------------|


                              PM  PM
  +H        E.   E.   E   +E  E E E E. E. E
|-----------------------|-------------------|
|-----------------------|-------------------|
|---------------------2-|-(2)---2-----------|
|-----------4----4----0-|-(0)-0-0-0-2-------|
|-(4)-------2----2------|-----------0--2--4-|
|-(2)-------------------|--------------0--2-|
|
|     PM  PM   PM   PM        PM  PM
| +E  E E E S  E S  E E   +E  E E E E. E. E
|-----------------------|-------------------|
|-----------------------|-------------------|
|-(6)---6---7----4----6-|-(6)---2---9--4--6-|
|-(4)-4-4-4-5--5-2--2-4-|-(4)-0-0-0-7--2--4-|
|-----------------------|-------------------|
|-----------------------|-------------------|


  Gtrs I, II
      PM------------------------|    PM
  +E  E E E E S E S E   S S E E E Q  S E.   W          +W
|---------------------|-------------------|----------|--------|
|---------------------|-------------------|----------|--------|
|---------------------|----------------5--|-4--------|-(4)----|
|---------------------|----------------5--|-4--------|-(4)----|
|-(4)-----------------|-----------4----3--|-2--------|-(2)----|
|-(2)-2-2-2-2-2-2-2-2-|-2-2-2-2-2-2--2----|----------|--------|


      PM------------------------|       PM--------|
  S S S S S S S S S S S S S S S S   S S S S S S S S E. E. E
|---------------------------------|-------------------------|
|---------------------------------|-------------------------|
|---------------------------------|--------------------5--4-|
|---------------------------------|--------------------5--4-|
|-2-4-----------------------------|-2-4-------------4--3--2-|
|-0h2-2-2-2-2-2-2-2-2-2-2-2-2-2-2-|-0h2-2-2-2-2-2-2-2-------|


  +W           +W           W          W
|------------|------------|----------|------|
|------------|------------|----------|------|
|-(4)--------|-(4)--------|----------|------|
|-(4)--------|-(4)--------|----------|-7----|
|-(2)--------|-(2)--------|-4--------|------|
|------------|------------|-2--------|-5----|


    PM----|      PM----|          PM----|      PM----|
  E S S S S S  S S S S S E  E   E S S S S S  S S S S S  Q
|-----------------------------|------------------------------|
|-----------------------------|------------------------[5]---|
|-9---------7-/9---------9-10-|-9---------7-/9---------------|
|-7---------5-/7---------7--7-|-7---------5-/7---------------|
|---0-0-0-0------0-0-0-0------|---0-0-0-0------0-0-0-0-------|
|-----------------------------|------------------------------|
|
|   PM----|      PM----|          PM----|      PM----|
| E S S S S S  S S S S S E  E   E S S S S S  S S S S S  S
|-----------------------------|------------------------------|
|-----------------------------|------------------------------|
|-9---------7-/9---------9-10-|-9---------7-/9---------------|
|-7---------5-/7---------7--7-|-7---------5-/7---------[5]---|
|---0-0-0-0------0-0-0-0------|---0-0-0-0------0-0-0-0-------|
|-----------------------------|------------------------------|


    PM----|      PM----|
  E S S S S S  S S S S S E  E   S S S S  S S S S  S S S S Q
|-----------------------------|-8-0-0-0-12-0-0-0-10-0-0-0----|
|-----------------------------|---------------------------3--|
|-9---------7-/9---------9-10-|------------------------------|
|-7---------5-/7---------7--7-|------------------------------|
|---0-0-0-0------0-0-0-0------|------------------------------|
|-----------------------------|------------------------------|
|
|   PM----|      PM----|
| E S S S S S  S S S S S E  E   S S S S  S S S S  S S S S S
|-----------------------------|-5-0-0-0--8-0-0-0--7-0-0-0----|
|-----------------------------|---------------------------3--|
|-9---------7-/9---------9-10-|------------------------------|
|-7---------5-/7---------7--7-|------------------------------|
|---0-0-0-0------0-0-0-0------|------------------------------|
|-----------------------------|------------------------------|


    PM----|      PM----|          PM----|      PM----|
  E S S S S S  S S S S S E  E   E S S S S S  S S S S S  Q
|-----------------------------|------------------------------|
|-----------------------------|------------------------[5]---|
|-9---------7-/9---------9-10-|-9---------7-/9---------------|
|-7---------5-/7---------7--7-|-7---------5-/7---------------|
|---0-0-0-0------0-0-0-0------|---0-0-0-0------0-0-0-0-------|
|-----------------------------|------------------------------|
|
|   PM----|      PM----|          PM----|      PM----|
| E S S S S S  S S S S S E  E   E S S S S S  S S S S S  S
|-----------------------------|------------------------------|
|-----------------------------|------------------------------|
|-9---------7-/9---------9-10-|-9---------7-/9---------------|
|-7---------5-/7---------7--7-|-7---------5-/7---------------|
|---0-0-0-0------0-0-0-0------|---0-0-0-0------0-0-0-0-[7]---|
|-----------------------------|------------------------------|


    PM----|      PM----|
  E S S S S S  S S S S S E  E   T T E T T E  T  T  E S E  S  S S S
|-----------------------------|------------------------------------|
|-----------------------------|------------------------------------|
|-9---------7-/9---------9-10-|--------------9--9--9---8-----------|
|-7---------5-/7---------7--7-|-7-7-7-7-7-7------------------------|
|---0-0-0-0------0-0-0-0------|--------------------------11-10-9-8-|
|-----------------------------|------------------------------------|
|
| Gtr II
|   PM----|      PM----|
| E S S S S S  S S S S S E  E   T T E T T E  T  T  E S E  S  S S S
|-----------------------------|------------------------------------|
|-----------------------------|------------------------------------|
|-9---------7-/9---------9-10-|------------------------------------|
|-7---------5-/7---------7--7-|-7-7-7-7-7-7-10-10-10---9-----------|
|---0-0-0-0------0-0-0-0------|---------------------------8--7-6-5-|
|-----------------------------|------------------------------------|


  Gtr I
     PM----|    PM--|              PM----|    PM----|
   E S S S S  E S S S S  E  E    E S S S S  E S S S S   Q
|-----------------------------|-----------------------------|-|
|-----------------------------|-----------------------[10]--|-|
|-10---------10---------10-12-|-14---------14---------------|-|
|----0-0-0-0----0-0-0-0-------|----0-0-0-0----0-0-0-0-------|-|
|-----------------------------|-----------------------------|-|
|-----------------------------|-----------------------------|-|
|
| Gtr II
|    PM----|    PM----|            PM----|    PM----|
|  E S S S S  E S S S S  E  E    E S S S S  E S S S S   Q
|-----------------------------|-----------------------------|-|
|-----------------------------|-13---------13---------------|-|
|-14---------14---------14-15-|-----------------------------|-|
|-12-0-0-0-0-12-0-0-0-0-12-12-|-12-0-0-0-0-12-0-0-0-0--10---|-|
|-----------------------------|-----------------------------|-|
|-----------------------------|-----------------------------|-|


     PM----|        PM----|            PM----|        PM----|    PM|
   E S S S S  E     S S S S  E  E    E S S S S  E     S S S S  E S S
|---------------------------------|----------------------------------|
|---------------------------------|----------------------------------|
|-10---------10-------------10-11-|-10---------10--------------9-----|
|----0-0-0-0--------0-0-0-0-------|----0-0-0-0--------0-0-0-0----0-0-|
|---------------------------------|----------------------------------|
|---------------------------------|----------------------------------|
|
|    PM----|        PM----|            PM----|        PM----|
|  E S S S S  S   S S S S S  E  E    E S S S S  S   S S S S S  Q
|---------------------------------|----------------------------------|
|---------------------------------|----------------------------------|
|-14---------12-/14---------14-15-|-14---------12-/14---------13-----|
|-12-0-0-0-0-10-/12-0-0-0-0-12-12-|-12-0-0-0-0-10-/12-0-0-0-0-11-----|
|---------------------------------|----------------------------------|
|---------------------------------|----------------------------------|


     PM----|       PM----|            PM----|       PM----|
   E S S S S S   S S S S S  E  E    E S S S S S   S S S S S  Q
|--------------------------------|--------------------------------|
|--------------------------------|--------------------------------|
|------------------------------7-|--------------------------[7]---|
|-10---------9-/10---------10----|-10---------9-/10---------------|
|--7-0-0-0-0-7--/7-0-0-0-0--7--7-|--7-0-0-0-0-7---7-0-0-0-0-------|
|--------------------------------|--------------------------------|
|
|    PM----|       PM----|            PM----|       PM----|
|  E S S S S S   S S S S S  E  E    E S S S S S   S S S S S  Q
|--------------------------------|--------------------------------|
|--------------------------------|--------------------------------|
|--9---------7--/9----------9-10-|--9---------7--/9---------------|
|--7---------5--/7----------7--7-|--7---------5--/7---------[5]---|
|----0-0-0-0-------0-0-0-0-------|----0-0-0-0-------0-0-0-0-------|
|--------------------------------|--------------------------------|


     PM----|       PM----|
   E S S S S S   S S S S S  E  E   E S S  E  S  S  Q    Q
|--------------------------------|--------------------------|
|--------------------------------|--------------------------|
|------------------------------7-|-9-----12-------14---17---|
|-10---------9-/10---------10----|-7-7-7-10-10-10-----------|
|--7-0-0-0-0-7--/7-0-0-0-0--7--7-|--------------------------|
|--------------------------------|--------------------------|
|
|    PM----|       PM----|
|  E S S S S S   S S S S S  E  E   E E    E  E     Q    Q
|--------------------------------|--------------------------|
|--------------------------------|--------------------------|
|--9---------7--/9----------9-10-|-5------5--7----14--[17]--|
|--7---------5--/7----------7--7-|-5------5--7--------------|
|----0-0-0-0-------0-0-0-0-------|---7----------------------|
|--------------------------------|--------------------------|


    E S S S E S E E  Q    3x Q  Q  Q  Q
||------------------------||-------------|
||o----------------------o||-------------|
||------------------------||-------------|
||--------5---------[7]---||-5-----2-----|
||o----------------------o||-3--3--0--5--|
||--3-3-3---3-3-3-5-------||----1-----3--|
|
|   E S S S E S E E  Q    3x Q  Q  Q  Q
||------------------------||-------------|
||o----------------------o||-------------|
||------------------------||-------------|
||--------5---------[7]---||-5-----2-----|
||o----------------------o||-3--3--0--5--|
||--3-3-3---3-3-3-5-------||----1-----3--|


    PM|     PM--|          PM|     PM--|
  E S S S E S E E  Q     E S S S E S E E  Q
|----------------------|----------------------|-|
|----------------------|----------------------|-|
|-----------------[5]--|----------------------|-|
|-------3--------------|-------5---------[7]--|-|
|----------------------|----------------------|-|
|-1-1-1---1-1-1-3------|-3-3-3---3-3-3-5------|-|
|
|   PM|     PM--|          PM|     PM--|
| E S S S E S E E  Q     E S S S E S E E  Q
|----------------------|----------------------|-|
|----------------------|----------------------|-|
|----------------------|----------------------|-|
|-------3---------[5]--|-------5---------[7]--|-|
|----------------------|----------------------|-|
|-1-1-1---1-1-1-3------|-3-3-3---3-3-3-5------|-|


  Gtr I
   S  S  S  S  S  S  S  S  S  S  S  S  S  S  S  S
|-------------------------------------------------|
|-13-12-------------------------------------------|
|-------14-12-14-12-10--9-10--9--7-----7----------|
|----------------------------------10----10--9--7-|
|-------------------------------------------------|
|-------------------------------------------------|
|
| Gtr II
|  S  S  S  S  S  S  S  S  S  S  S  S  S  S  S  S
|-12----------------------------------------------|
|----15-13-12-13-12-------------------------------|
|-------------------14-12-14-12-------------------|
|-------------------------------15-14-15-14-12----|
|----------------------------------------------15-|
|-------------------------------------------------|


   S  S  S  S  S  S  S  S  S  S  S  S  S  S S S
|-----------------------------------------------|
|-----------------------------------------------|
|-----------------------------------------------|
|-10--9--7-----9--7-----------------------------|
|----------10-------10--8-10--8--7----------0---|
|----------------------------------10--8--7---3-|
|
|  S  S  S  S  S  S  S  S  S  S  S  S  S  S S S
|-----------------------------------------------|
|-----------------------------------------------|
|-----------------------------------------------|
|-14-12-------12--------------------------------|
|-------15-14----15-14-12-14-12-----------------|
|-------------------------------15-13-12-10-8-7-|


  PM--|                      PM--|   PM  PM
  S S E H.                E  E E E E S E S E
|----------------------|---------------------|
|----------------------|---------------------|
|----------------------|---------------------|
|-------4--------------|---------------------|
|-------4--------------|-----------5---2---4-|
|-2-2-2-2--------------|-----2-2-2-3-3-0-0-2-|
|
|     PM   PM  PM  PM        PM  PM  PM  PM
| E   E E  E E S E S E   +E  E E E E S E S E
|----------------------|---------------------|
|----------------------|---------------------|
|-------6----7---4---6-|-(6)---2---4-------6-|
|-----4-4--4-5-5-2-2-4-|-(4)-0-0-0-2-2-6-4-4-|
|----------------------|---------------4-----|
|----------------------|---------------------|


                              PM  PM
  +H        E.   E.   E   +E  E E E E. E. E
|-----------------------|--------------------|
|-----------------------|--------------------|
|-----------6----4----2-|-(2)---2---9--4--6--|
|-----------4----2----0-|-(0)-0-0-0-7--2--4--|
|-(4)-------------------|--------------------|
|-(2)-------------------|--------------------|
|
|     PM  PM   PM   PM        PM  PM
| +E  E E E S  E S  E E   +E  E E E E. E. E
|-----------------------|--------------------|
|-----------------------|--------------------|
|-(6)---6---7----4----6-|-(6)---2---9--4--6--|
|-(4)-4-4-4-5--5-2--2-4-|-(4)-0-0-0-7--2--4--|
|-----------------------|--------------------|
|-----------------------|--------------------|


   PM-|                      PM--|   PM  PM
  +E  E H.                E  E E E E S E S E
|----------------------|---------------------|
|----------------------|---------------------|
|-(6)------------------|---------------------|
|-(4)---4--------------|---------------------|
|-------4--------------|-----------5---2---4-|
|-----2-2--------------|-----2-2-2-3-3-0-0-2-|
|
|     PM   PM  PM  PM        PM--|   PM  PM
|  E  E E  E E S E S E   +E  E E E E S E S E
|----------------------|---------------------|
|----------------5---7-|-(7)-----------------|
|-------6----7---------|-----------4-------6-|
|-----4-4--4-5-5-2-2-4-|-(4)-4-4-4-2-2-6-4-4-|
|----------------------|---------------4-----|
|----------------------|---------------------|


                              PM  PM
  +H        E.   E.   E   +E  E E E E. E. E
|-----------------------|-------------------|
|-----------------------|-------------------|
|---------------------2-|-(2)---2-----------|
|-----------4----4----0-|-(0)-0-0-0-2-------|
|-(4)-------2----2------|-----------0--2--4-|
|-(2)-------------------|--------------0--2-|
|
|     PM  PM   PM   PM        PM  PM
| +E  E E E S  E S  E E   +E  E E E E. E. E
|-----------------------|-------------------|
|-----------------------|-------------------|
|-(6)---6---7----4----6-|-(6)---2---9--4--6-|
|-(4)-4-4-4-5--5-2--2-4-|-(4)-0-0-0-7--2--4-|
|-----------------------|-------------------|
|-----------------------|-------------------|


  Gtr I
      PM------------------------|
  +E  E E E E S E S E   S S E E E Q  E E
|---------------------|------------------|-|
|---------------------|------------------|-|
|---------------------|------------------|-|
|---------------------|--------------4-7-|-|
|-(4)-----------------|------------------|-|
|-(2)-2-2-2-2-2-2-2-2-|-2-2-2-2-2--------|-|
|
|     PM------------------------|
| +E  E E E E S E S E   S S E E E Q  E E
|---------------------|------------------|-|
|---------------------|------------------|-|
|-(6)-----------------|--------------4-6-|-|
|-(4)-----------------|--------------2-4-|-|
|---------------------|------------------|-|
|-----2-2-2-2-2-2-2-2-|-2-2-2-2-2--------|-|


  S S E E E E S E S E    S  S  S  S  S  S  S  S  S  S  S  S  S  S  S  S
|---------------------|-------------------------------------------------|-|
|---------------------|----------------------------------------------12-|-|
|---------------------|-11--9-------------------------------11----14----|-|
|---------------------|-------12-11--9-12-11--9----------11-------------|-|
|---------------------|-------------------------12-11-12-------12-------|-|
|-2-2-2-2-2-2-2-2-2-2-|-------------------------------------------------|-|
|
| S S E E E E S E S E    S  S  S  S  S  S  S  S  S  S  S  S  S  S  S  S
|---------------------|-------------------------------------------------|-|
|---------------------|-------------------------------------14-------12-|-|
|---------------------|----------------------------------------11-14----|-|
|---------------------|-12-11--9----11--9-------------------------------|-|
|---------------------|----------12-------12-11--9-----9-12-------------|-|
|-2-2-2-2-2-2-2-2-2-2-|----------------------------12-------------------|-|


  Gtr I
     PM------------|   TPTPTPTPTPTPTPTP
   E E E E E S E S E   S S S S S S S S S  S  S  S  S  S  S  S
|--------------------|----------------------------------------|
|-14-----------------|----------------------------------------|
|--------------------|-------------------------------11-13-16-|
|--------------------|-------------x-x-9-11-12-11-12----------|
|--------------------|-------x-x-x----------------------------|
|----2-2-2-2-2-2-2-2-|-x-x-x----------------------------------|
|
|    PM------------|   TPTPTPTPTPTP
|  E E E E E S E S E   S S S S S S S S S  S  S  S  S  S  S  S
|--------------------|----------------------------------------|
|-14-----------------|----------------------------------------|
|--------------------|--------------------------------4--5--7-|
|--------------------|-------------x-x-4--5--4--4--6----------|
|--------------------|-------4-5-7----------------------------|
|----2-2-2-2-2-2-2-2-|-x-x-x----------------------------------|


  Gtr I
     PM------------|
   E E E E E S E S E   W
|--------------------|------|
|-13-----------------|------|
|--------------------|------|
|--------------------|------|
|--------------------|------|
|----2-2-2-2-2-2-2-2-|------|
|
|    PM------------|
|  E E E E E S E S E   W
|--------------------|------|
|-13-----------------|------|
|--------------------|------|
|--------------------|------|
|--------------------|------|
|----2-2-2-2-2-2-2-2-|------|


              PM-----------------------------|
  W           S  S S S S S S S S S S S S S S S
|----------|-----------------------------------|
|----------|-----------------------------------|
|-5--------|-----------------------------------|
|-3--------|--3--3-3-3-3-3-3-3-3-3-3-3-3-3-3-3-|
|----------|-----------------------------------|
|----------|-----------------------------------|
|
| W          +W
|----------|-----------------------------------|
|----------|-----------------------------------|
|-5--------|-(5)-------------------------------|
|-3--------|-(3)-------------------------------|
|----------|-----------------------------------|
|----------|-----------------------------------|


  W          W
|----------|------|
|----------|------|
|-6--------|-4----|
|-6--------|-4----|
|-4--------|-2----|
|----------|------|


       PM----|      PM--------------|          PM----|      PM------------|
  S  S S S S S S  S S S S S S S  S  S    S   S S S S S S  S S S S S S S S S
|-------------------------------------|-------------------------------------|
|-------------------------------------|-------------------------------------|
|-------------------------------------|-------------------------------------|
|-6-/8---------6-/8-------------------|--6--/8---------6-/8-----------------|
|-4-/6-6-6-6-6-4-/6-6-6-6-6-6-6--6--6-|--4--/6-6-6-6-6-4-/6-6-6-6-6-6-6-6-6-|
|-------------------------------------|-------------------------------------|
|
| Q        E   H                +E      +W
|-------------------------------------|-------------------------------------|
|-------------------------------------|-------------------------------------|
|-------------------------------------|-------------------------------------|
|-8------------8----------------(8)---|-(8)---------------------------------|
|-6--------6---6----------------(6)---|-(6)---------------------------------|
|-------------------------------------|-------------------------------------|


  Gtrs I, II
  W          W
|----------|------|
|----------|------|
|----------|------|
|----------|-6----|
|-4--------|-4----|
|-2--------|------|


  Gtrs I, II
    PM------------------------------|   PM----|
  E S S S S S S S S S S S S S S   S S E S S S S E. E. E
|-------------------------------|-----------------------|
|-------------------------------|-----------------------|
|-------------------------------|-----------------------|
|-5-----------------------------|---------------8--3--5-|
|-3-3-3-3-3-3-3-3-3-3-3-3-3-3-3-|-3-3-6---------6--1--3-|
|-------------------------------|-----4-4-4-4-4---------|


  Gtrs I, II
  PM|   PM--------|   PM----------|   PM----|
  S S E S S S S S S E S S S S   S S E S S S S E. E. E
|-----------------------------|-----------------------|
|-----------------------------|-----------------------|
|-----------------------------|-----------------------|
|-----5-------------5---------|---------------8--3--5-|
|-3-3-3-3-3-3-3-3-3-3-3-3-3-3-|-3-3-6---------6--1--3-|
|-----------------------------|-----4-4-4-4-4---------|


  Gtrs I, II
  PM|   PM--------|   PM----------|   PM----|
  S S E S S S S S S E S S S S   S S E S S S S E. E. E
|-----------------------------|-----------------------|
|-----------------------------|-----------------------|
|-----------------------------|-----------------------|
|-----5-------------5---------|---------------8--3--5-|
|-3-3-3-3-3-3-3-3-3-3-3-3-3-3-|-3-3-6---------6--1--3-|
|-----------------------------|-----4-4-4-4-4---------|


  Gtrs I, II
  PM|   PM--------|   PM|
  S S E S S S S S S E S S E   W
|---------------------------|------|
|---------------------------|------|
|---------------------------|------|
|-----5-------------5-----5-|-4----|
|-3-3-3-3-3-3-3-3-3-3-3-3-3-|-2----|
|---------------------------|------|


  E S S S S S S S S S S S S S S   S S S S S S S S S S S S S S S S
|-------------------------------|---------------------------------|
|-------------------------------|---------------------------------|
|-------4-4-----5-5---2-2---4-4-|-4-4-----0-0-----2-2-2-------0-0-|
|---2-2-----2-2-----2-----2-----|-----2-2-----2-2-------4-4-4-----|
|-------------------------------|---------------------------------|
|-------------------------------|---------------------------------|


  E S S S S S S S S S S S S S S   S S S S S S S S E S E S E
|-------------------------------|---------------------------|
|-------------------------------|---------------------------|
|-0-----4-4-----5-5---2-2---4-4-|-4-4-----0-0-----7---2---4-|
|---2-2-----2-2-----2-----2-----|-----2-2-----2-2-5-5-0-0-2-|
|-------------------------------|---------------------------|
|-------------------------------|---------------------------|


  +E  S S S S S S S S S S S S S S   S S S S S S S S S S S S S S S S
|---------------------------------|---------------------------------|
|---------------------------------|---------------------------------|
|-(4)-----4-4-----5-5---2-2---4-4-|-4-4-----0-0-----2-2-2-------0-0-|
|-(2)-2-2-----2-2-----2-----2-----|-----2-2-----2-2-------4-4-4-----|
|---------------------------------|---------------------------------|
|---------------------------------|---------------------------------|


  E S S S S S S S S S S S S  E    W
|-------------------------------|------|
|---------------------3-3-3-----|------|
|-0-----4-4-----5-5-5-------[5]-|------|
|---2-2-----2-2-----------------|------|
|-------------------------------|------|
|-------------------------------|------|


  Gtr I
  PM--|                      PM--|   PM  PM
  S S E H.                E  E E E E S E S E
|----------------------|---------------------|
|----------------------|---------------------|
|----------------------|---------------------|
|-------4--------------|---------------------|
|-------4--------------|-----------5---2---4-|
|-2-2-2-2--------------|-----2-2-2-3-3-0-0-2-|
|
| Gtr II
|     PM   PM  PM  PM        PM  PM  PM  PM
| E   E E  E E S E S E   +E  E E E E S E S E
|----------------------|---------------------|
|----------------------|---------------------|
|-------6----7---4---6-|-(6)---2---4-------6-|
|-----4-4--4-5-5-2-2-4-|-(4)-0-0-0-2-2-6-4-4-|
|----------------------|---------------4-----|
|----------------------|---------------------|


                              PM  PM
  +H        E.   E.   E   +E  E E E E. E. E
|-----------------------|--------------------|
|-----------------------|--------------------|
|-----------6----4----2-|-(2)---2---9--4--6--|
|-----------4----2----0-|-(0)-0-0-0-7--2--4--|
|-(4)-------------------|--------------------|
|-(2)-------------------|--------------------|
|
|     PM  PM   PM   PM        PM  PM
| +E  E E E S  E S  E E   +E  E E E E. E. E
|-----------------------|--------------------|
|-----------------------|--------------------|
|-(6)---6---7----4----6-|-(6)---2---9--4--6--|
|-(4)-4-4-4-5--5-2--2-4-|-(4)-0-0-0-7--2--4--|
|-----------------------|--------------------|
|-----------------------|--------------------|


   PM-|                      PM--|   PM  PM
  +E  E H.                E  E E E E S E S E
|----------------------|---------------------|
|----------------------|---------------------|
|-(6)------------------|---------------------|
|-(4)---4--------------|---------------------|
|-------4--------------|-----------5---2---4-|
|-----2-2--------------|-----2-2-2-3-3-0-0-2-|
|
|     PM   PM  PM  PM        PM--|   PM  PM
|  E  E E  E E S E S E   +E  E E E E S E S E
|----------------------|---------------------|
|----------------5---7-|-(7)-----------------|
|-------6----7---------|-----------4-------6-|
|-----4-4--4-5-5-2-2-4-|-(4)-4-4-4-2-2-6-4-4-|
|----------------------|---------------4-----|
|----------------------|---------------------|


                              PM  PM
  +H        E.   E.   E   +E  E E E E. E. E
|-----------------------|-------------------|
|-----------------------|-------------------|
|---------------------2-|-(2)---2-----------|
|-----------4----4----0-|-(0)-0-0-0-2-------|
|-(4)-------2----2------|-----------0--2--4-|
|-(2)-------------------|--------------0--2-|
|
|     PM  PM   PM   PM        PM  PM
| +E  E E E S  E S  E E   +E  E E E E. E. E
|-----------------------|-------------------|
|-----------------------|-------------------|
|-(6)---6---7----4----6-|-(6)---2---9--4--6-|
|-(4)-4-4-4-5--5-2--2-4-|-(4)-0-0-0-7--2--4-|
|-----------------------|-------------------|
|-----------------------|-------------------|


  Gtr I
  +E  S S S S S S E.     E.     E     S S E   S S S S S S S S S S S S
|-----------------------------------|---------------------------------|
|-----------------3-----------------|---------------------------------|
|-----------------4-------------2---|-----2---------------------------|
|-----4-4-7-7-4-4--------4------4---|-4-4-4---4-4-4-4-6-6-6-2-2-2-4-4-|
|-(4)--------------------5----------|---------------------------------|
|-(2)-------------------------------|---------------------------------|
|
| Gtr II
| +E  S S S S S S S  S S S  S S S S   S S S S S S S S S S S S S S S S
|-----------------------------------|---------------------------------|
|-----------------------------------|---------------------------------|
|-(6)-----6-6-----7--7---4--4---6-6-|-6-6-------------4-4-4-----------|
|-(4)-4-4-----4-4------4------4-----|-----4-4-7-7-4-4-------6-6-6-7-7-|
|-----------------------------------|---------------------------------|
|-----------------------------------|---------------------------------|


  Gtr I
  E E   S S S S E.     E.      E     +E   S S S S S S E. E. E
|---------------------------------|---------------------------|
|---------------------------------|---------------------------|
|---2-----------4--------------2--|--(2)--------------6-----2-|
|-4-----4-4-4-4-2------4-------0--|--(0)--4-4-4-4-4-4-7--6--4-|
|----------------------2----------|----------------------7----|
|---------------------------------|---------------------------|
|
| Gtr II
| E S S S S S S S  S S S  S S  E     +E   S S S S S S E. E. E
|---------------------------------|---------------------------|
|---------------------------------|---------------------------|
|-------6-6-----7--7---4--4---[7]-|-([7])-------------9--4--6-|
|-7-4-4-----4-4------4------4-----|-------4-4-7-7-4-4-7--2--4-|
|---------------------------------|---------------------------|
|---------------------------------|---------------------------|


  Gtr I
  +E  S S S S S S E.     E.      E     +E   S S S S S S S S S S S S S S
|-----------------------------------|-----------------------------------|
|-----------------3-----------------|-----------------------------------|
|-(2)-------------4--------------2--|--(2)------------------------------|
|-(4)-4-4-4-4-4-4--------4-------4--|--(4)--4-4-4-4-4-4-6-6-6-2-2-2-4-4-|
|------------------------5----------|-----------------------------------|
|-----------------------------------|-----------------------------------|
|
| Gtr II
| +E  S S S S S S S  S S S  S S  E     +E   S S S S S S S S S S S S S S
|-----------------------------------|-----------------------------------|
|------------------------5--5---[7]-|-([7])-----------------------------|
|-(6)-----6-6-----7--7--------------|-------------------4-4-4-----------|
|-(4)-4-4-----4-4------4------4-----|-------4-4-7-7-4-4-------6-6-6-7-7-|
|-----------------------------------|-----------------------------------|
|-----------------------------------|-----------------------------------|


  Gtr I
  S S E   S S S S E.     E.     E     +E    S S S S S S E. E. E
|-----------------------------------|---------------------------|
|-----------------------------------|---------------------------|
|-----2-----------6-------------2---|-(2)---------------9--4--6-|
|-4-4-4---4-4-4-4-4------4------0---|-(0)---0-0-0-0-0-0-7--2--4-|
|------------------------2----------|---------------------------|
|-----------------------------------|---------------------------|
|
| Gtr II
| E   S S S S S S S  S S S  S S S S    S  S S S S S S S E. E. E
|-----------------------------------|---------------------------|
|-----------------------------------|---------------------------|
|---------6-6-----7--7---4--4---6-6-|--6--6-------------9--4--6-|
|-7---4-4-----4-4------4------4-----|-------4-4-7-7-4-4-7--2--4-|
|-----------------------------------|---------------------------|
|-----------------------------------|---------------------------|


Duration Legend
---------------
W - whole; H - half; Q - quarter; E - 8th; S - 16th; T - 32nd; X - 64th; a - acciaccatura
+ - note tied to previous; . - note dotted; .. - note double dotted
Uncapitalized letters represent notes that are staccato (1/2 duration)
Irregular groupings are notated above the duration line
Duration letters will always appear directly above the note/fret number it represents the
duration for.  Duration letters with no fret number below them represent rests.  Multi-
bar rests are notated in the form Wxn, where n is the number of bars to rest for.  Low
melody durations appear below the staff

Tablature Legend
----------------
 h   - hammer-on
 p   - pull-off
 b   - bend
 pb  - pre-bend
 r   - bend release (if no number after the r, then release immediately)
 /\  - slide into or out of (from/to "nowhere")
 s   - legato slide
 S   - shift slide
<n>  - natural harmonic
[n]  - artificial harmonic
n(n) - tapped harmonic
 ~   - vibrato
 tr  - trill
 T   - tap
 TP  - trem. picking
 PM  - palm muting
\n/  - tremolo bar dip; n = amount to dip
 \n  - tremolo bar down
 n/  - tremolo bar up
/n\  - tremolo bar inverted dip
 =   - hold bend; also acts as connecting device for hammers/pulls
 <>  - volume swell (louder/softer)
 x   - on rhythm slash represents muted slash
 o   - on rhythm slash represents single note slash

Misc Legend
-----------
 |  - bar
||  - double bar
||o - repeat start
o|| - repeat end
*|  - double bar (ending)
 :  - bar (freetime)
 $  - Segno
 &  - Coda
Tempo markers - <E/E./Q/Q./H/H.> = BPM(8/16=s8/s16), where s8 = swing 8ths, s16 = swing 16ths
comments
We did not receive enough feedback on this tab! Please rate:
print report bad tab
1 2 3 4 5
I want to post or [tab]
guest
You may want to rate the tab now too:
select rating
Please do not post tabs as comments. Select "correction" instead!