Oops, an error
Loading. Please wait.

18 And Life Tab

ver6
ver6
More versions @911Tabs.com
3,648 views 1 this week
no commentswrite comment
1 2 3 4 5
please rate
Autoscroll
+/-
esc
set tempo
stop
Contributor
Difficulty
novice
WARNING: You are trying to view
                                    content from Ultimate-Guitar.com
                                    in an unauthorized application,
                                    which is prohibited.

                                    Please use an official Ultimate
                                    Guitar Tabs application for iPhone,
                                    iPad or Android to access legitimate
                                    chords, guitar, bass, and drum tabs
                                    from Ultimate-Guitar.com database.

                                    Type "ultimate guitar tabs" in Apple
                                    App Store's or Android Market's
                                    search to find the application.
                      18 and Life - Skidrow                       


                                                




     Clean Guitar - Chorus                         
     E                     E  E  E  E  E  E  S  S  
E||-----------------------------------------------|
B||------------------------5--------4-------------|
G||---------------------------6--------4----------|
D||---------------------------------------4-------|
A||--4---------------------------4-----------4h-6-|
E||-----------------------------------------------|


  E  E  E  E  E  E  E  E     E  E  E  E  E  E  E  E   
--------------------------|--------------------------|
-----5--------4-----------|-----5--------4-----------|
--------6--------4--------|--------6--------4--------|
--------------------4-----|--------------------4-----|
--4--------4-----------2--|--4--------4-----------4--|
--------------------------|--------------------------|


  E  E  Q    T  S. E  Q     
--------0-------------0----|
--------0-------------0----|
--------2-------------4----|
-----2-------------4-------|
--0----------0h-2----------|
---------------------------|


  E  E  E  E  E  E  E  S  S    E  E  E  E  E  E  E  E   
----------------------------|--------------------------|
-----5--------4-------------|-----5--------4-----------|
--------6--------4----------|--------6--------4--------|
--------------------4-------|--------------------4-----|
--4--------4-----------4h-6-|--4--------4-----------2--|
----------------------------|--------------------------|


  E  E  E  E  E  E  E  E     E  E  Q    T  S. E  Q     
--------------------------|--------0-------------0----|
-----5--------4-----------|--------0-------------0----|
--------6--------4--------|--------2-------------4----|
--------------------4-----|-----2-------------4-------|
--4--------4-----------4--|--0----------0h-2----------|
--------------------------|---------------------------|


  Ricky was a young boy...                         
  E                        E  E  E  E  E  E  S  S  
--------------------------------------------------|
---------------------------5--------4-------------|
------------------------------6--------4----------|
------------------------------------------4-------|
--4------------------------------4-----------4h-6-|
--------------------------------------------------|


  E  E  E  E  E  E  E  E     E  E  E  E  E  E  E  E   
--------------------------|--------------------------|
-----5--------4-----------|-----5--------4-----------|
--------6--------4--------|--------6--------4--------|
--------------------4-----|--------------------4-----|
--4--------4-----------2--|--4--------4-----------4--|
--------------------------|--------------------------|


  Distorcion               
  Q.         E  Q    Q     
--------------------------|
--------------------------|
--2-------------4---------|
--2-------------4---------|
--0----------0--2---------|
--------------------------|


  Clean Chorus                         
  E            E  E  E  E  E  E  S  S  
--------------------------------------|
---------------5--------4-------------|
------------------6--------4----------|
------------------------------4-------|
--4------------------4-----------4h-6-|
--------------------------------------|


  E  E  E  E  E  E  E  E     E  E  E  E  E  E  E  E   
--------------------------|--------------------------|
-----5--------4-----------|-----5--------4-----------|
--------6--------4--------|--------6--------4--------|
--------------------4-----|--------------------4-----|
--4--------4-----------2--|--4--------4-----------4--|
--------------------------|--------------------------|


  Distorcion                                         
                              PM PM PM PM PM PM      
  H          Q    Q        E  E  E  E  E  E  E  E    
------------------------|---------------------------|
------------------------|---------------------------|
--2----------4----------|--2------------------------|
--2----------4----------|--2--2--2--2--2--2--2------|
--0----------2----------|--0--0--0--0--0--0--0------|
------------------4b----|-----------------------4b--|


     PM PM PM PM PM        
  E  E  E  E  E  E  S E.   
--------------------------|
--------------------------|
--------------------------|
----------------------4---|
--4--4--4--4--4--4----4---|
--2--2--2--2--2--2--0-2---|


        PM PM PM PM PM                              
    E   E  E  E  E  E  E  S S    H        H         
------------------------------|--------------------|
------------------------------|--------------------|
------------------------------|--2--------4--------|
-----------------6--6--4--4-6-|--2--------4--------|
--------6--6--6--6--6--4--4-6-|--0--------2--------|
--<>4~--4--4--4--4--4--2--2-4-|--------------------|


  E  E  E  E  E  E  E  E     E  E  E  E  E  E  E  E   
--------------------------|--------0-----------------|
--------------------------|-----0-----0--------4-----|
--------6-----------2-----|--------------------4-----|
-----6-----6-----2-----2--|--2--------------4-----5--|
--4-----------0-----------|--2-----------2--------3--|
--------------------------|--0-----------------------|


  E  E  E  E  E  E  E  E     E  E  E  E  E  E  E  E   
--------------------------|--------0-----------------|
--------------------------|-----0-----0--------------|
--------6-----------2-----|--------------------4-----|
--6--6-----6-----2-----2--|--2--------------4--4--5--|
--4-----------0-----------|--2-----------2--------3--|
--------------------------|--0-----------------------|


  E  E  E  E  E  E  E  E     E  E  E  E  E  E  E  E   
--------------------------|--------0-----------------|
--------------------------|-----0-----0--------------|
--------6-----------2-----|--------------------4-----|
--6--6-----6-----2-----2--|--2--------------4--4--5--|
--4-----------0-----------|--2-----------2--------3--|
--------------------------|--0-----------------------|


  E  E  E  E  E  E  E  E     H        Q    Q     
--------------------------|---------------------|
--------------------------|-----------4---------|
--------6-----------2-----|-----------4----4----|
--6--6-----6-----2-----2--|--2--------4----4----|
--4-----------0-----------|--2--------2----2----|
--------------------------|--0------------------|


  Clean Chorus                         
  E            E  E  E  E  E  E  S  S  
--------------------------------------|
---------------5--------4-------------|
------------------6--------4----------|
------------------------------4-------|
--4------------------4-----------4h-6-|
--------------------------------------|


  E  E  E  E  E  E  E  E     E  E  E  E  E  E  E  E   
--------------------------|--------------------------|
-----5--------4-----------|-----5--------4-----------|
--------6--------4--------|--------6--------4--------|
--------------------4-----|--------------------4-----|
--4--------4-----------2--|--4--------4-----------4--|
--------------------------|--------------------------|


  E    E   E    E   T   S. E  E    E   
--------------------------------------|
-----/14--12\--10--10h-12-10----------|
------------------------------9h--11--|
--------------------------------------|
--------------------------------------|
--------------------------------------|


  E  E  E  E  E  E  E  S  S    E  E  E  E  E  E  E  E   
----------------------------|--------------------------|
-----5--------4-------------|-----5--------4-----------|
--L-----6--------4----------|--------6--------4--------|
--------------------4-------|--------------------4-----|
--4--------4-----------4h-6-|--4--------4-----------2--|
----------------------------|--------------------------|


  E  E  E  E  E  E  E  E     E  E  Q    T  S. E  Q     
--------------------------|--------0-------------0----|
-----5--------4-----------|--------0-------------0----|
--------6--------4--------|--------2-------------4----|
--------------------4-----|-----2-------------4-------|
--4--------4-----------4--|--0----------0h-2----------|
--------------------------|---------------------------|


  Distorcion                       
  PM         PM       PM PM        
  E          E  E  E  E  E  E  E   
----------------------------------|
-------------------L--------------|
----------------6--L--------4--L--|
----------------6-----------4-----|
--4----------4--4-----2--2--2-----|
----------------------------------|


  PM PM    PM    PM PM          
  E  E  E  E  E  S  S    Q      
-------------------------------|
-------------------------------|
--------6-----4----------------|
--------6-----4----------------|
--4--4--4--4--2--0--0--<>2~----|
-------------------------------|


  PM PM       PM PM                                  
  E  E  E  E  E  S  S  Q        H        Q    Q      
-----------------------------|----------------------|
--------------------4--------|----------------------|
--------6--L--------4--------|--2--------4----------|
--------6-----------4--------|--2--------4----------|
--4--4--4-----2--2----11S----|--0--------2----------|
-----------------------------|----------------4b----|


     PM PM PM PM PM              PM PM PM PM PM        
  E  E  E  E  E  E  E  E      E  E  E  E  E  E  S E.   
---------------------------|--------------------------|
---------------------------|--------------------------|
--2------------------------|--------------------------|
--2--2--2--2--2--2--2------|----------------------4---|
--0--0--0--0--0--0--0------|--4--4--4--4--4--4----4---|
-----------------------4b--|--2--2--2--2--2--2--0-2---|


     PM PM PM PM PM                              
  E  E  E  E  E  E  E  S S    H        H         
---------------------------|--------------------|
---------------------------|--------------------|
---------------------------|--2--------4--------|
--6-----------6--6--4--4-6-|--2--------4--------|
--6--6--6--6--6--6--4--4-6-|--0--------2--------|
--4--4--4--4--4--4--2--2-4-|--------------------|


  E  E  E  E  E  E  E  E     E  E  E  E  E  E  E  E   
--------------------------|--------0-----------------|
--------------------------|-----0-----0--------4-----|
--------6-----------2-----|--------------------4-----|
-----6-----6-----2-----2--|--2--------------4-----5--|
--4-----------0-----------|--2-----------2--------3--|
--------------------------|--0-----------------------|


  E  E  E  E  E  E  E  E     E  E  E  E  E  E  E  E   
--------------------------|--------0-----------------|
--------------------------|-----0-----0--------------|
--------6-----------2-----|--------------------4-----|
--6--6-----6-----2-----2--|--2--------------4--4--5--|
--4-----------0-----------|--2-----------2--------3--|
--------------------------|--0-----------------------|


  E  E  E  E  E  E  E  E     E  E  E  E  E  E  E  E   
--------------------------|--------0-----------------|
--------------------------|-----0-----0--------------|
--------6-----------2-----|--------------------4-----|
--6--6-----6-----2-----2--|--2--------------4--4--5--|
--4-----------0-----------|--2-----------2--------3--|
--------------------------|--0-----------------------|


  E  E  E  E  E  E  E  E     H        Q    E   E   
--------------------------|-----------------------|
--------------------------|-----------------------|
--------6-----------2-----|-----------4-----------|
--6--6-----6-----2-----2--|--2--------4-----------|
--4-----------0-----------|--2--------2----2h--4--|
--------------------------|--0--------------------|


     PM PM    PM PM    PM PM    PM  
  E  S  S  E  S  S  E  S  S  E  E   
-----------------------------------|
--5--------5--------5--------5-----|
--6--------6--------6--------6-----|
--6--------6--------6--------6-----|
--4--4--4-----4--4-----4--4-----4--|
-----------------------------------|


   S  E   S S  S S  S  E    E  E  E   
-------------------------------------|
-----17-------17---16-19b~--------L--|
--18-----18-L------------------------|
-------------------------------------|
-------------------------------------|
-------------------------------------|


  H        E  E  E  S  S    H         E    E  E  E   
-------------------------|--------------------------|
-------------------------|--------------------------|
-------------------------|--------------------------|
--2----------------------|--------------------------|
--2-----------------2h-4-|--2~--------L--2g4--2-----|
--0--------0--2--4-------|-----------------------4--|


  H        E  E  E  S  S    H.            E  S S  
-------------------------|-----------------------|
-------------------------|-----------------------|
--2----------------------|-----------------------|
--2----------------------|-----------------------|
--0--------0-----0--2h-4-|--2~------------L--x-x-|
--------------4----------|-------------------x-x-|


  E  E  E  E  H           H        Q    E  E   
-----------------------|----------------------|
-----------------------|----------------------|
--6--6--6-----2--------|-----------4----------|
--6--6--6--4--2--------|--2--------4----------|
--4--4--4-----0--------|--2--------2----2--3--|
-----------------------|--0-------------------|


         Sl.                                   
  Q.     E   Q.     E     H        Q    E  E   
-----------------------|----------------------|
-----------------------|----------------------|
--6------L---2------2--|-----------4----4--5--|
--6------L---2------2--|--2--------4----4--5--|
--4------L---0------0--|--2--------2----2--3--|
-----------------------|--0-------------------|


  Q.     E   Q.     E     Q.     E  H         
-----------------------|---------------------|
-----------------------|---------------------|
--6------6S--2---------|------------4--------|
--6------6S--2---------|--2---------4--------|
--4------4S--0---------|--2---------2--------|
--------------------0--|--0------0-----------|


  Q.     E   Q.     E     E  E  E  E  Q    Q     
-----------------------|------------------------|
-----------------------|------------------------|
--6------6S--2---------|--------------4----4----|
--6------6S--2---------|--2--2--2--2--4----4----|
--4------4S--0---------|--2--2--2--2--2----2----|
--------------------0--|--0--0--0--0------------|


  E  E  E  E  E  E  E  E     E  E  E  E  E  E  E  E   
--------------------------|--------0-----------------|
--------------------------|-----0-----0--------------|
--------6-----------2-----|--------------------4-----|
-----6-----6-----2-----2--|--2--------------4--4--5--|
--4-----------0-----------|--2-----------2--------3--|
--------------------------|--0-----------------------|


  E  E  E  E  E  E  E  E     E  E  E  E  E  E  E  E   
--------------------------|--------0-----------------|
--------------------------|-----0-----0--------------|
--------6-----------2-----|--------------------4-----|
--6--6-----6-----2-----2--|--2--------------4--4--5--|
--4-----------0-----------|--2-----------2--------3--|
--------------------------|--0-----------------------|


  E  E  E  E  E  E  E  E     E  E  E  E  E  E  E  E   
--------------------------|--------0-----------------|
--------------------------|-----0-----0--------------|
--------6-----------2-----|--------------------4-----|
--6--6-----6-----2-----2--|--2--------------4--4--5--|
--4-----------0-----------|--2-----------2--------3--|
--------------------------|--0-----------------------|


  E  E  E  E  E  E  E  E     W                 
--------------------------|-------------------|
--------------------------|-------------------|
--------6-----------2-----|-------------------|
--6--6-----6-----2-----2--|-------------------|
--4-----------0-----------|-------------------|
--------------------------|-------------------|


  S  E.   E  Q.      S  S E    
------------------------------|
--4S-5S---4-------------------|
-------------4~------4S-6-----|
--------------------------6~--|
------------------------------|
------------------------------|


  Q    S  S H         S  S  
---------------------------|
---------------------------|
---------------------------|
--L----6S-7----------------|
------------9~--------7S-6-|
---------------------------|


  S  E.   E  Q.      S  S E    
------------------------------|
--4S-5S---4-------------------|
-------------4~------4S-6-----|
--------------------------6~--|
------------------------------|
------------------------------|


                               |---3---|   
  Q    S S S  S E   S S  S  S  S   S   S   
------------------------------14p-12p-11h-|
----------------------------9-------------|
----------------------9-11b---------------|
--L----6-7---------11---------------------|
-----------7S-9-L-------------------------|
------------------------------------------|


   Q      E   Q.       S   S  E    
--12~----11-----------------------|
-------------12~------12h-14------|
-----------------------------13~--|
----------------------------------|
----------------------------------|
----------------------------------|


  Q     S   S  Q      S   S  S   S   S  S  
----------------------------14p-12p-11----|
---------------------14p-12------------12-|
--L----13h-14-11~-------------------------|
------------------------------------------|
------------------------------------------|
------------------------------------------|


   S   E.   E   Q.       E.   S  
--11h-12---11-----------12------|
---------------12~------12------|
------------------------14---14-|
--------------------------------|
--------------------------------|
--------------------------------|


   Q     E   S  S  Q      S  S  S   S  
--12S---------------------------------|
--12S----9--------10~-------12--------|
---------9p--8h-9-11~----13----13S-11-|
--------------------------------------|
--------------------------------------|
--------------------------------------|


  W                    W                 
--------------------|-------------------|
--------------------|-------------------|
--9~----------------|-------------------|
--------------------|-------------------|
--------------------|-------------------|
--------------------|-------------------|


-------------------|-------------------||
-------------------|-------------------||
-------------------|-------------------||
-------------------|-------------------||
-------------------|-------------------||
-------------------|-------------------||




Duration Legend
---------------
W - whole
H - half
Q - quarter
E - 8th
S - 16th
T - 32nd
X - 64th
. - note dotted
|-n-|  - n-tuplets


Tablature Legend
----------------
L - tied note
x - dead note
g - grace note
(n) - ghost note
> - accentuded note
NH - natural harmonic
AH - artificial harmonic
TH - tapped harmonic
SH - semi harmonic
PH - pitch harmonic
h - hammer on
p - pull off
b - bend
br - bendRelease
pb - preBend
pbr - preBendRelease
brb - bendReleaseBend
\n/ - tremolo bar dip
\n - tremolo bar dive
-/n - tremolo bar Release up
/n\ - tremolo bar inverted dip
/n - tremolo bar return
-\n - tremolo bar Release down
S - shift slide
s - legato slide
/ -  slide into from below or out of upwards
\ -  slide into from above or out of downwards
~ - vibrato
W - wide vibrato
tr - trill
TP - tremolo picking
T - tapping
S - slap
P - pop
< - fade in
^ - brush up
v - brush down
comments
We did not receive enough feedback on this tab! Please rate:
print report bad tab
1 2 3 4 5
I want to post or [tab]
guest
You may want to rate the tab now too:
select rating
Please do not post tabs as comments. Select "correction" instead!