Oops, an error
Loading. Please wait.

Big Guns Tab

ver1
ver1

Whole song

Interactive

More versions @911Tabs.com
9,960 views 9 this week
no commentswrite comment
1 2 3 4 5
excellent!
x 3
Autoscroll
+/-
esc
set tempo
stop
Contributor
Difficulty
intermediate
Hey! There's an official Ultimate Guitar app which is ideal
for learning songs when you're away from computer. Get the app
WARNING: You are trying to view
                                    content from Ultimate-Guitar.com
                                    in an unauthorized application,
                                    which is prohibited.

                                    Please use an official Ultimate
                                    Guitar Tabs application for iPhone,
                                    iPad or Android to access legitimate
                                    chords, guitar, bass, and drum tabs
                                    from Ultimate-Guitar.com database.

                                    Type "ultimate guitar tabs" in Apple
                                    App Store's or Android Market's
                                    search to find the application.
Intro
  Q=136
 4/4
  Gtrs I, II
                                            PM----|   PM
  W          S E.    S S E E   +S  S Q    E E E E E E E E
|-3--------|----------------------------|-----------------|
|-0--------|----------------------------|-5---------5---3-|
|-0--------|----------------------------|-5---------5---3-|
|-0--------|-5p3b3.5--------------------|-5---------5---3-|
|----------|---------5p3-1-3b4r(3)-1----|-----------------|
|-3--------|-------------------------3--|---3-3-3-3---3---|


  PM------|   PM    PM------|   PM    PM------|   PM
  E E E E E E E E   E E E E E E E E   E E E E E E E E
|-----------------|-----------------|-----------------|
|-----------3---5-|-----------5---3-|-----------3---5-|
|-----------3---5-|-----------5---3-|-----------3---5-|
|-----------3---5-|-----------5---3-|-----------3---5-|
|-----------------|-----------------|-----------------|
|-3-3-3-3-3---3---|-3-3-3-3-3---3---|-3-3-3-3-3---3---|


  Gtr I
                                                             ~~
  E E Q   Q   E E   E E Q   Q   +Q         E  S  S  a  E  E  H
|-----------------|--------------------|-----15----15S22-19----------|
|-----------------|--------------------|-/15----15----------20-------|
|---------7s==2-7s|=6s5s3---3---(3)\---|-----------------------------|
|-8s6S5---7s==2-7s|=6s5s3---3---(3)\---|-----------------------------|
|-8s6S5-----------|--------------------|-----------------------------|
|-----------------|--------------------|-----------------------------|
|
| Gtr II
|   PM----|   PM    PM------|    PM        PM---------------|    PM
| E E E E E E E E   E E E E E E  E   E     E  E        E  E  E E E E
|-----------------|--------------------|-----------------------------|
|-5---------5---3-|-----------3------5-|-----------------------5---3-|
|-5---------5---3-|-----------3------5-|-----------------------5---3-|
|-5---------5---3-|-----------3------5-|-----------------------5---3-|
|-----------------|--------------------|-----------------------------|
|---3-3-3-3---3---|-3-3-3-3-3----3-----|---3--3--------3--3--3---3---|


   S  S  S  Q      +S   +Q.    e
|----------17-----(17)-(17)s==22---||
|-20s18----------------------------||
|-------19-------------------------||
|----------------------------------||
|----------------------------------||
|----------------------------------||
|
|  Q          E H             +E
|----------------------------------||
|--6----------x-5-------------(5)\-||
|--5----------x-5-------------(5)\-||
|--3----------x-5-------------(5)\-||
|----------------------------------||
|----------------------------------||


 Verse
  Q   +Q     Q   E E   +Q    +Q     E Q   E
|--------------------|----------------------|
|--------------------|----------------------|
|-5---(5)\---------3-|-(3)---(3)\---------5-|
|-5---(5)\---------3-|-(3)---(3)\---------5-|
|--------------------|----------------------|
|--------------------|----------------------|
|
|   PM-------|   PM     PM----------|   PM
| E E  E   E E E E E    E  E  E   E E E E E
|--------------------|----------------------|
|-5------------5---3-|----------------3---5-|
|-5------------5---3-|----------------3---5-|
|-5------------5---3-|----------------3---5-|
|--------------------|----------------------|
|---3--3---3-3---3---|--3--3--3---3-3---3---|


                 C/G Bb/F               Bb/FC/G                C/G Bb/F
  Gtr II
   E  E  E   E E E E E    E  E  E   E E E E E    E  E  E   E E E E E
   |  |  |   | | | | |    |  |  |   | | | | |    |  |  |   | | | | |
   o  /  /   / / / o /    o  /  /   / / / o /    o  /  /   / / / o /

  Gtr I
  +Q    +Q     E Q   E   +Q    +Q     E Q   E   +Q    +Q     E Q   E
|----------------------|----------------------|----------------------|
|----------------------|----------------------|----------------------|
|-(5)---(5)\---------3-|-(3)---(3)\---------5-|-(5)---(5)\---------3-|
|-(5)---(5)\---------3-|-(3)---(3)\---------5-|-(5)---(5)\---------3-|
|----------------------|----------------------|----------------------|
|----------------------|----------------------|----------------------|


                 Bb/FC/G                C/G F5        C/G      D/A
   E  E  E   E E E E E    E  E  E   E E E E E   +Q  E E +E E E E
   |  |  |   | | | | |    |  |  |   | | | | |    |  | |  | | | |
   o  /  /   / / / o /    o  /  /   / / / o /    /  x /  / o o /

  +Q    +Q     E Q   E   +Q    +Q     H          W
|----------------------|----------------------|------------------|
|----------------------|----------------------|------------------|
|-(3)---(3)\---------5-|-(5)---(5)\-----------|------------------|
|-(3)---(3)\---------5-|-(5)---(5)\-----------|------------------|
|----------------------|----------------------|------------------|
|----------------------|----------------------|------------------|


    Gtrs I, II
    E E E E E E E E   E E E E E E E E     E E E E E E E E
||------------------|------------------||-----------------|
||o-----------7---5-|-----------5---7-o||-----------7---5-|
||------------7---5-|-----------5---7--||-----------7---5-|
||------------7---5-|-----------5---7--||-----------7---5-|
||o-0-0-0-0-0---0---|-0-0-0-0-0---0---o||-0-0-0-0-0---0---|
||------------------|------------------||-----------------|


  E E E E E E E E   +H     +E  E E E   W
|-----------------|------------------|-------|
|-----------5---5-|-(5)----(5)---5-7-|-7\----|
|-----------5---5-|-(5)----(5)---5-7-|-7\----|
|-----------5---5-|-(5)----(5)---5-7-|-7\----|
|-0-0-0-0-0---0-3-|-(3)----(3)-0-3-5-|-5\----|
|-----------------|------------------|-------|


  Chorus
   Gtrs I, II
   Q.   Q  +E  Q     +W            Q.   Q  +E  Q    +W
||-------------3---|-(3)---------|------3--(3)-2--|-(2)---------------|
||-------------3---|-(3)---------|------3--(3)-3--|-(3)---------------|
||-2----5--(5)-0---|-(0)---------|-2----0--(0)-2--|-(2)---------------|
||-2----5--(5)-0---|-(0)---------|-2----0--(0)-0--|-(0)---------------|
||-0----3--(3)-----|-------------|-0--------------|-------------------|
||-------------3---|-(3)---------|------3--(3)----|-------------------|
|
|                                                   Gtr III
|                                                                 ~
|                W            W             W        E  E E E E E Q
||-----------------|-------------|----------------|-------------------|
||-----------------|-------------|----------------|-------------------|
||-----------------|-------------|----------------|-------------------|
||-----------------|-------------|----------------|-----0-------------|
||-----------------|-------------|----------------|-------3-2-3-2-----|
||-----------------|-------------|----------------|---------------3---|


  Q.   Q  +E  Q    +H     +E  E Q    E E E E Q  Q    +W
|-------------3--|-(3)----(3)---3--|-------3----2--|-(2)---------------|
|-------------3--|-(3)----(3)---3--|-------3----3--|-(3)---------------|
|-2----5--(5)-0--|-(0)----(0)---0--|-2-----0----2--|-(2)---------------|
|-2----5--(5)-0--|-(0)----(0)---0--|-2-----0----0--|-(0)---------------|
|-0----3--(3)----|-----------------|-0-------------|-------------------|
|-------------3--|-(3)----(3)-0-3--|-------3-------|-------------------|
|
|                                                        Gtr III
| W                 W                W                E  E E E E E E E
|----------------|-----------------|---------------|-------------------|
|----------------|-----------------|---------------|-------------------|
|----------------|-----------------|---------------|-------------------|
|----------------|-----------------|---------------|-------------------|
|----------------|-----------------|---------------|-------------------|
|----------------|-----------------|---------------|-----0-1h2-1h2-3s5-|


  Interlude
   Gtr I
                                                   ~
   E   E E E   E E E   E   S S E E E Q.      E   E Q   S S Q   E E
||-------5-------5-------|---------------------|----------------------|
||-----5-5-----5-5-----5-|-----8-8-5-7b8r====7-|---5------------------|
||-7b9-----7b9-----7b9---|-7p0-7-7-5-7b9r====7-|---5-------5-----7b9r=|
||-----------------------|---------------------|-0-------------x------|
||-----------------------|---------------------|-------7-5------------|
||-----------------------|---------------------|----------------------|
|
|  Gtr II
|  E   E E E   E E E   E   E   E E E E   E E E   E E E E   E E E E
||-----------------------|---------------------|-----------------3----|
||---------------7-----5-|---------------5---7-|-------------7---3----|
||---------------7-----5-|---------------5---7-|-------------7---0----|
||---------------7-----5-|---------------5---7-|-------------7---0----|
||-0---0-0-0---0---0-----|-0---0-0-0-0-----0---|-0-0-0-0---0---0------|
||-----------------------|---------------------|-----------------3----|


                                     Verse 2
  +E    S S S S S S  E   E E     E    W                 W
|----------------------------------||-----------------|-----------------|
|----------------------------------||-----------------|-----------------|
|-(7)b9r===========================||=================|=================|
|-------------7--------------------||-----------------|-----------------|
|-------6s5-6---5-5--3b5r3-3b5r==3-||-----------------|-----------------|
|----------------------------------||-----------------|-----------------|
|
|  E    E   E   E   +E   E Q          E E E E E E E E   E E E E E E E E
|--3------------2---(2)------------||-----------------|-----------------|
|--3------------3---(3)------------||-7---------7---5-|-----------5---7-|
|--0------------2---(2)------------||-7---------7---5-|-----------5---7-|
|--0------------0---(0)------------||-7---------7---5-|-----------5---7-|
|-------x--------------------------||---0-0-0-0---0---|-0-0-0-0-0---0---|
|--3---------------------0-3b3.5---||-----------------|-----------------|


  E E E E E E E E   E E E E E E E E   E E E E E E E E
|-----------------|-----------------|-----------------|
|-7---------7---5-|-----------5---7-|-7---------7---5-|
|-7---------7---5-|-----------5---7-|-7---------7---5-|
|-7---------7---5-|-----------5---7-|-7---------7---5-|
|---0-0-0-0---0---|-0-0-0-0-0---0---|---0-0-0-0---0---|
|-----------------|-----------------|-----------------|


  E E E E E E E E   +W           Q.   E +Q   Q    +Q   Q.   Q.
|-----------------|------------|----------------|----------------|
|-----------5---5-|-(5)--------|-7----8-(8)--7--|-(7)--8----7\---|
|-----------5---5-|-(5)--------|-7----7-(7)--7--|-(7)--7----7\---|
|-----------5---5-|-(5)--------|-7----7-(7)--7--|-(7)--7----7\---|
|-0-0-0-0-0---0-3-|-(3)--------|-5----5-(5)--5--|-(5)--5----5\---|
|-----------------|------------|----------------|----------------|


   Chorus
    Q.   Q  +E  Q    +W           Q.   Q  +E  Q    +W      4x
||--------------3--|-(3)--------|------3--(3)-2--|-(2)-----||
||o-------------3--|-(3)--------|------3--(3)-3--|-(3)----o||
||--2----5--(5)-0--|-(0)--------|-2----0--(0)-2--|-(2)-----||
||--2----5--(5)-0--|-(0)--------|-2----0--(0)-0--|-(0)-----||
||o-0----3--(3)----|------------|-0--------------|--------o||
||--------------3--|-(3)--------|------3--(3)----|---------||


  Guitar Solo
   A5      B5              A5  B5
   Gtr II
    Q       E       E   E  E E E
    |       |              | | |
    /       /              / / /

   Gtr I
                           ~
    E  S S  E   a   E  +E  Q   E
||-12-10-7-----------------------|
||---------10-(10)-12-(12)-------|
||-------------------------9-----|
||-----------------------------0-|
||-------------------------------|
||-------------------------------|


       A5        B5        A5B5       G5  A5         G5  A5
  E     E    E   E   E     E E E       Q  E E  E     E E E
        |    |   |         | |         |  |          | | |
        /    /   /         / /         /  /          / / /

  E    +S  S S S S S S +S  E E E      +Q    E +S   S E Q   E
|-----------------------------------|-----------------------|
|-----------------------------------|-----------------------|
|-9b11r(9)p7-------------------6b7==|=(6)---6-(6)r-4S2-4----|
|------------9p7--------------------|----------------------9|
|----------------7p5h7-(7)p5--------|-----------------------|
|----------------------------7------|-----------------------|


    G5  A5       G5A5    A5                B5                 A5      B5
  E E E  E     E E E E    Q                E     E        E   E   E   E
    | |  |       | |      |                |                  |   |   |
    / /  /       / /      /                /                  /   /   /

  E E E  E     E E E E   +T  T T T T T T T T S. +T  T T T S S S S S S S S
|----------------------|----------------------------------------------------|
|----------------------|----------------------------------------------------|
|-7---7-[9]b11-7---7-6-|-(6)h7p6---6---6---7p6--(6)h7p6---6---6h7p6---6h7h==|
|---9------------9-----|---------9---9---9--------------9---x-------9-------|
|----------------------|----------------------------------------------------|
|----------------------|----------------------------------------------------|


          A5      B5          G5A5                          A5
  E       E   E   E   E   E   E E     +H               +E   E E  E
          |   |   |       |   | |      |                |   | |  |
          /   /   /       o   / /      /                /   / /  /

  T T T T S S S S S S S S S Q     S    S S S S S S S S  E   E E  E
|-----------------------------------|---------------------------22b24r|
|-----------------------------------|---------------------------------|
|-9p7p6---6-------------------------|-------------------7b8---x-------|
|-------9---7-9-5-7-----------------|------------7-8-9------9-x-------|
|-------------------9-9p7p5s4-----5-|------5h7s9----------------------|
|-----------------------------------|--5h7----------------------------|


                                 B5  C5
    H                        E   E E  E
    |                        |   | |  |
    /                        /   / /  /

   +E   S  S  S  S     S  S  s S E E  E
|-(22)-19--------------------------------|
|---------22p19--------------------------|
|---------------21b23-21p19h21-7---------|
|--------------------------------7h9h10--|
|----------------------------------------|
|----------------------------------------|


  Bridge
   Gtrs I, II
                                         ~
   H    +E  E E E   +H..       E   +E  E Q  H      +E  E Q  E E +E  E
||----------------|--------------|---------------|-------------------|
||----------------|--------------|---------------|-------------------|
||-5----(5)-------|------------2-|-(2)-2----2----|-(2)-2----2-4-(4)-5|
||-5----(5)-----5-|-(5)--------2-|-(2)-2----2----|-(2)-2-5--2-2-(2)-5|
||-3----(3)-2-0-5-|-(5)--------0-|-(0)-0----0----|-(0)-0-5--0-2-(2)-3|
||--------------3-|-(3)----------|-------3-------|-------3-----------|


                                       PM--------------|
  +H     +E  E E E   H..       E   +E  E E E E E E E   E E E E H
|------------------|-------------|-------------------|---------------|
|------------------|-------------|-------------------|---------------|
|-(5)----(5)-------|-----------2-|-(2)---------------|---4-4-4-4\----|
|-(5)----(5)-----5-|-5---------2-|-(2)---------------|---4-4-4-4\----|
|-(3)----(3)-2-0-5-|-5---------0-|-(0)-2-2-2-2-2-2-2-|-2-2-2-2-2\----|
|----------------3-|-3-----------|-------------------|---------------|


  Q.   E +Q   Q    +W           Q.   E +Q   Q    E E E E Q  Q
|----------------|------------|----------------|------------2--|
|----------------|------------|----------------|------------3--|
|-2----5-(5)-----|------------|-2----5-(5)-----|-2-----5----2--|
|-2----5-(5)--5--|-(5)--------|-2----5-(5)--5--|-2-----5----0--|
|-0----3-(3)--5--|-(5)--------|-0----3-(3)--5--|-0-----3-------|
|-------------3--|-(3)--------|-------------3--|---------------|


                       Chorus
                        A5    C5           G5
        Gtr II
     W                  Q.    Q         +E  Q
                        |     |          |  |
                        /     /          /  /

        Gtr I
                 ~~~~
  H      Q      +Q      E  Q  E   +Q       +E    E
|-------22b24--(22)--||----------------------------|
|--------------------||-------8---(8)------(8)-----|
|--------------------||-------7b9-(7)b9----(7)b9-5-|
|--------------------||----------------------------|
|--------------------||----------------------------|
|--------------------||----------------------------|
|
| Gtr III
| W                     W
|-2------------------||----------------------------|
|-3------------------||----------------------------|
|-2------------------||----------------------------|
|-0------------------||----------------------------|
|--------------------||----------------------------|
|--------------------||----------------------------|


                           A5    G5    D
  +W                        Q.   Q  +E Q
   |                        |    |   | |
   /                        /    /   / /

                      ~~~~~~~~~
   E   E E   E Q      Q    +W
|------------------------|----------------|
|--7b8r7-7b8r7-----------|----------------|
|--7b9r7-7b9r7-5b5.5-----|----------------|
|---------------------7--|-(7)------------|
|------------------------|----------------|
|------------------------|----------------|
|
|  W                        W
|------------------------|----------------|
|------------------------|----------------|
|------------------------|----------------|
|------------------------|----------------|
|------------------------|----------------|
|------------------------|----------------|


                          A5    C5       G5
  +W                      Q.    Q     +E Q
   |                      |     |      | |
   /                      /     /      / /

                                         ~~~~
   E E     E E E E E E    Q.    E +Q     Q
|-----------------------|-------------------|
|----8-----8-8-8-8-8-8--|-8-----------------|
|----7pb9==7-7-7-7-7-7r-|-7b9---5-(5)-------|
|--x--------------------|----------------7--|
|-----------------------|-------------------|
|-----------------------|-------------------|


                      A5     G5     D
  +W                  Q.     Q   +E Q
   |                  |      |    | |
   /                  /      /    / /

 ~~~~~
   H.      +Q         Q    E E E  E E E
|-------------------|--------------------|
|-------------------|-7b8-------------5--|
|-------------------|-7b9----9-9s=7------|
|--7-------(7)\-----|--------7-7s=5------|
|-------------------|--------------------|
|-------------------|--------------------|


  Out-Chorus
                      A5  C5   G5
   +W                  Q. Q +E  Q
    |                  |  |  |  |
    /                  /  /  /  /

    E E Q +Q   Q       Q     E  E      +E   +E   +E   E
||--5---5-(5)--5\---|-17------------------------------------|
||----5-------------|-17-------20b22==(20)-(20)-(20)r-8-----|
||------------------|---------------------------------7b9===|
||------------------|---------------------------------------|
||------------------|---------------------------------------|
||------------------|---------------------------------------|


                      A5 G5      D
  +W                  Q. Q +E    Q
   |                  |  |  |    |
   /                  /  /  /    /

               ~~~~
   E E  E    E Q Q    Q     E    E Q   +Q
|--8-8--------------|----------------------|
|--8-8--8------7-5--|----------------------|
|--7-7r-7b9--5-7-5--|------------7-7b9r(7)-|
|-------------------|-7----[7]b9-----------|
|-------------------|----------------------|
|-------------------|----------------------|


               A5  C5   G5                  A5  G5   D
  +W            Q. Q +E Q       +W           Q. Q +E Q
   |            |  |  | |        |           |  |  | |
   /            /  /  / /        /           /  /  / /

   ~~~                           ~~~~~~~~~~~~~~~
  +W           +W                W          +W
|------------|----------------|-----------|---------------|
|------------|----------------|-----------|---------------|
|-(7)--------|-(7)------------|--3--------|-(3)-----------|
|------------|----------------|-----------|---------------|
|------------|----------------|-----------|---------------|
|------------|----------------|-----------|---------------|


                              A5        C5        G5
  +W                           Q.         Q    +E  Q
   |                           |          |     |  |
   /                           /          /     /  /

   E   E S E E E +E    S  E    E   E  E   E  E  E  E   E
|--------8---4--------14----|-14--14-14-/14-14-14-14-/14-|
|------5---8---8-(8)\----13-|-13--13-13-/13-13-13-13-/13-|
|--7b9----------------------|----------------------------|
|---------------------------|----------------------------|
|---------------------------|----------------------------|
|---------------------------|----------------------------|


                         A5       G5       D
  +W                      Q.       Q    +E  Q
   |                      |        |     |  |
   /                      /        /     /  /

   E E  E  E  E  E  Q     E  E  E  E  E  E  E  E
|-14-------------------|--------------------------|
|-13---13-13-13s15-15--|-15s17-17-17-20-20-20-----|
|----0----12-12s14-14--|-14s16-16-16-19-19-19-21--|
|----------------------|-12s14-14-14-17-17-17-----|
|----------------------|--------------------------|
|----------------------|--------------------------|


                          A5  C5    G5
  +W                       Q.  Q +E  Q
   |                       |   |  |  |
   /                       /   /  /  /

               ~~
   E  E  Q  E  E  E  E     S   S  S  S E  E  E  E     E      E
|-----------------------|-20--20-20-20---20-20-20----20b21==20--|
|-22----22-22-20-17-20--|-------------------19-19b20-19---------|
|----21-21-21-----------|---------------------------------------|
|-----------------------|---------------------------------------|
|-----------------------|---------------------------------------|
|-----------------------|---------------------------------------|


  +W
   |
   /

   E     E      E  E  E      E  E  E
|-20r---20-----20-20-20-----20-20--------|
|-19----19b21========19b21========19r----|
|----------------------------------------|
|----------------------------------------|
|----------------------------------------|
|----------------------------------------|


  Gtr I
   E     +E   E  E     +E   E Q
|--------------------------------|
|-20b22r(20)-17------------------|
|---------------19b21r(19)-17----|
|-----------------------------0--|
|-----------------------------0--|
|--------------------------------|
|
| Gtr II
|  E      E   E  E      Q     Q
|--------------------------------|
|--------------------------------|
|--2--------------------------7--|
|--2-------------5------------5--|
|--0-------------5------------5--|
|----------------3---------------|


                                  3/4
                              ~
  H.      E   E   E E E E E E Q    E E E E Q
|---------------|----------------|-------------|
|---------------|----------------|-------------|
|---------------|----------------|-2-2-2-2-----|
|-0-------------|----------------|-2-2-2-2-----|
|-0-------x\----|---5-3-2-3-2----|-0-0-0-0-----|
|---------x\-12S|=7-----------3--|-------------|
|
|                             ~
| W               E E E E E E Q    E E E E Q
|---------------|----------------|-------------|
|---------------|----------------|-------------|
|---------------|----------------|-2-2-2-2-----|
|---------------|----------------|-2-2-2-2-----|
|---------------|---5-3-2-3-2----|-0-0-0-0-----|
|---------------|-x-----------3--|-------------|


  A5                    A5
 4/4
  Gtr II
  E E E E   H             W
  | | | |                 |
  / / / /                 /

  Gtr I
                  ~~~~~~~~~~~
  E E E E Q    S  E.     +H      Q      +S   +S   E
|--------------------||-----------------------------|
|--------------------||-----------------------------|
|-2-2-2-2-2s==17-17--||-(17)----20b22r=(20)-(20)-17-|
|-2-2-2-2-2s==17-17--||-(17)------------------------|
|-0-0-0-0------------||-----------------------------|
|--------------------||-----------------------------|


  A5
   W
   |
   /

   T  S  S  S  S  S  S  S  S  T  S  S  S  S  S  T  T  S
|-19p17----16--------------------------------------------|
|-------20----20-19-17-17-20-20p19-17--------------------|
|-------------------------------------20-19-17-16h17h19--|
|--------------------------------------------------------|
|--------------------------------------------------------|
|--------------------------------------------------------|


  A5
   W
   |
   /

   S  S  S  S  S  S  S  S  S  S  S  S  S  S  S  S
|-------------------------------------------------|
|-------------------------------------------------|
|-19p17p16-------------16-17-19----------16-17-19-|
|----------19-16h17h19----------16h17h19----------|
|-------------------------------------------------|
|-------------------------------------------------|


  A5
   W
   |
   /

   S  S  S  a  E  S  S  S   S  S  S  S  S  S  S  S
|---------------------------------------------------|
|---------------------------------------------------|
|---------------------------------------------------|
|-16h17h19-17h19p17p16-----16-----------------------|
|----------------------19-----19-17-16-17-17p16-----|
|-----------------------------------------------17--|


  Gtrs I, II
  E E E E E E E E
|--------------------*|
|--------------------*|
|-7-----5-----2------*|
|-7-----5-----2------*|
|-5-0-0-3-0---0------*|
|-----------3--------*|
comments
We did not receive enough feedback on this tab! Please rate:
print report bad tab
1 2 3 4 5
I want to post or [tab]
guest
You may want to rate the tab now too:
select rating
Please do not post tabs as comments. Select "correction" instead!