Oops, an error
Loading. Please wait.

In A Darkened Room Tab

ver1
ver1

Whole song

Interactive

More versions @911Tabs.com
22,600 views 63 this week
no commentswrite comment
1 2 3 4 5
accurate
x 3
Autoscroll
+/-
esc
set tempo
stop
WARNING: You are trying to view
                                    content from Ultimate-Guitar.com
                                    in an unauthorized application,
                                    which is prohibited.

                                    Please use an official Ultimate
                                    Guitar Tabs application for iPhone,
                                    iPad or Android to access legitimate
                                    chords, guitar, bass, and drum tabs
                                    from Ultimate-Guitar.com database.

                                    Type "ultimate guitar tabs" in Apple
                                    App Store's or Android Market's
                                    search to find the application.
Song: In a darkend room
By: Skid row
Tabber: bighabit69@iamwasted.com


~~~= vibrato
/= silde
h= hammer on
p= pull off
f= full bend
fr= full bend release
hr= 1/4 bend
hb=half bend
N.H= natural harmonic


Intro & solo 1
  GT3                                   ~~~~~~~~~~~~~~                             ~~~
|-----------------------|--------------------------------|-----------------------------------|    
|---------------------15|-15---------------------------15|-15f-15-15----------------------15-|
|---------------14f-----|----14fr----14f------------14f--|-------------14f-14---12---14f-----|
|-----------------------|--------------------------------|-----------------------------------|
|-----------------------|--------------------------------|-----------------------------------|
|-----------------------|--------------------------------|-----------------------------------|
|
|(played with intro solo)GT,1,2
|-----------------------|----------------3---------------|-----------------------------------|
|-----------------------|--3-------------3---------------|------3----------------------------|
|-----------------------|--0-------------0---------------|---2--0----------------------------|
|-----------------------|--2-----------2-------------0--2|-3--------------------------0 h 2--|
|-----------------------|--2-----------2-----------------|-----------------------------------|
|-----------------------|--0-----------0-----------------------------------------------------|

                                 ~~~~~                           lst & 2nd Verses
|---------------------------|---------------------------------||-----------------------------|
|---------------------------|---------------------------------||-----------------------------|
|-14f-------12-14f--14f---12|----------12h14------------------||-----------------------------|
|---------------------------|-12h14----------12h14------------||-----------------------------|
|---------------------------|----------------------12h14-10h12||-----------------------------|
|---------------------------|---------------------------------||-----------------------------|
|
|                                                               let ring********************| 
|-2-------------------------|---------------------------------||-----------------------------|
|-3-------------------------|-3-------------------------------||-------3---------------------|
|-2-----------------2f--0---|-0-------------------------------||-----------0-----------------|
|-0--------------0---------2|-2-------------------------------||----2---------2--------------|
|----------------0----------|-3-------------------------------||-------------------------0--2|
|---------------------------|---------------------------------||-0---------------------------|

 Gt 1, 2
 let ring************************|   let ring|     let ring*****************************
|-------------------------|-----------------------------|---------------------0---------|
|------3------------------|-----3-------------------3---|------3---------3/8-----8p7---0|
|------------0------------|---2------2------2--2fr--0---|------0------------------------|
|---2-----------------0h2-|-0----------0---------------2|---2---------------------------|
|-3-----------------------|-----------------------------|-3-----------------------------|
|-------------------------|-----------------------------|-------------------------------|

 GT-3
|----------------------------------------|---0---------------------------------------|
|-3--------------------------------------|---3---------------------------------------|
|-0--------------------------------------|---0---------------------------------------|
|-2--------------------------------------|---2---------------------------------------|
|-2--------------------------------------|---3---------------------------------------|
|-0---------------------------------x--x-|-------------------------------------------|
| gt 1, 2
| let ring***************************************************************************
|--------------------0-------------------|-----------------------0-------------------|
|-------3------------------3-------------|---------3------------------3--------------|
|--------------0--------------0----------|---------0------0--------------0-----------|
|----2------------2----------------------|------2-------------2-------------------0h2|
|-----------------------------------0---2|---3---------------------------------------|
|-0--------------------------------------|-------------------------------------------|

                                                                          Pre-chorus         
|-2----------------------------------|--0-------------------------------||---------------------------|
|-3----------------------------------|--3-------------------------------||---------------------------|
|-2----------------------------------|--0-------------------------------||---------------------------|
|-0----------------------------------|--2-------------------------------||---------------------------|
|------------------------------------|--3-------------------------------||---------------------------|
|------------------------------------|----------------------------------||---------------------------|
|
|                                                                         let ring**************|     
|------------------------------------|--------------------------0-------||-------3-------------3-----|
|-------3----------3------------3----|-------3------------------3-----0-||-----3------------1--------|
|----2-------2-------------2fr--0----|-------0----0-------------0--0--0-||---------------------------|
|-0-------------0------------------2-|-----2---------2----------2--2--0-||--0------------------------|
|------------------------------------|--3---------------3-------3-------||---------------0-----------|
|------------------------------------|----------------------------------||---------------------------|

  GT 1, 2
  Let ring***********************************************************************************
|--------0-------------------------3----|-----3------------3------|-------0-------------------------|
|----------------------3--------1-------|---3------------1--------|-------------------3-------------|
|-----0-----0-------2-----2-------------|-------------------------|----0-----0-----2----2-----------|
|---------------------------------------|-0-----------------------|---------------------------------|
|----------------------------3----------|-------------0-----------|-------------------------5-------|
|--0------------2-----------------------|-------------------------|-0-----------2-------------------|
  
                Chorus
|-------------||-----3---2---3-----2-3---2-----3--|-----3---2---3---2-2--2h3p2---0--------|
|---7---------||---3---3---3---3-5-----5----5----5|---3---3---3---3---3--3----------3-----|
|---7---------||-5--------------------------------|-0-----------------2--2----------------|
|---7---------||----------------------------------|---------------------------------------|
|-------------||----------------------------------|---------------------------------------|
|-------------||----------------------------------|---------------------------------------|
                                                      
  GT 3                                                                    ~~~~~~~~~~~~~~~~       
|----------------------------------|---------------------|-----------------------------------|
|----------------------------------|-----------------15--|-15------------------------------15|
|----------------------------------|-----------14f-------|----14fr----14f--------------14f---|
|----------------------------------|---------------------|-----------------------------------|
|----------------------------------|---------------------|-----------------------------------|
|----------------------------------|---------------------|-----------------------------------|
|
| GT 1
|-----3----2---3-----2-3---2---3---|--2------------------|-----------------------------------|
|---3----3---3---3-5-----5---5---5-|--3------------------|-3-------------3-------------------|
|-5--------------------------------|--2------------------|-0-----------------0---------------|
|----------------------------------|--0------------------|-2----------2---------2------------|
|----------------------------------|---------------------|-2----------2-----------------0--2-|
|----------------------------------|---------------------|-0----------0----------------------|
|
| Gt 2
|-----3----2---3------2-3---2---3--|--2------------------|-----------------------------------|
|---3----3---3----3-5-----5---5---5|--3------------------|-3--------------3------------------|
|-5--------------------------------|--2------------------|-0-----------------0---------------|
|----------------------------------|--0------------------|-2----------2---------2------------|
|----------------------------------|---------------------|-2----------2-----------------0--2-|
|----------------------------------|---------------------|-0----------0----------------------|

                        ~~~~                                              ~~~~~~
|--------------------------------|-------------------------------|---------------------------------|
|--15f-15-15-------------------15|-------------------------------|------------------------15-13-12-|
|--------------14f-14--12---14f--|-14f--------12-14fr--14fr----12|---------------------12----------|
|--------------------------------|-------------------------------|-12h14------------12-------------|
|--------------------------------|-------------------------------|------------12/14----------------|
|--------------------------------|-------------------------------|---------------------------------|
|
| GT 1, 2                                                                               N.H      N.H            
|--------0-----------------------|-2-----------------------------|-------------------------------------|
|--------3-----------------------|-3-----------------------------|-3-------------------{12}-----{12}---|
|--------0--------0--------------|-2-----2fr---2---------2fr--0--|-0------------------------7----------|
|-----2--------2-----------------|-0-----0-----0----------------2|-2-----------------------------------|
|--3-------------------------0h2-|-------------------------------|-3-----------------------------------|
|--------------------------------|-------------------------------|-------------------------------------|

Verse  ~~~~~~~~~~~~~~~~~~~~~~~~~~
|-----14-------------------------|----------------------------|---------------------------------|
|--------------------------------|----------------------------|---------------------------------|
|--------------------------------|----------------------------|---------------------------------|
|--------------------------------|----------------------------|---------------------------------|
|--------------------------------|----------------------------|---------------------------------|
|--------------------------------|----------------------------|---------------------------------|
|
|
|--------------------------------|----------------------------|---------------------------------|
|-----------3--------------------|--------3-------------------|-----3---------------------3-----|
|----------------0---------------|-------------0--------------|---2------2-------2-2fr----0-----|
|-------2-----------2------------|-----2------------------0h2-|-0-----------0----------------2--|
|-----------------------------0-2|--3-------------------------|---------------------------------|
|----0---------------------------|----------------------------|---------------------------------|


|-----------------------------------------|-------------------------------------------|
|-----------------------------------------|-3-----------------------------------------|
|-----------------------------------------|-0-----------------------------------------|
|-----------------------------------------|-2-----------------------------------------|
|-----------------------------------------|-2-----------------------------------------|
|-----------------------------------------|-0-----------------------------------x---x-|
|
|
|----------------------------0------------|--------------------0----------------------|
|-----------3----------3/8------8p7----0--|---------3---------------3-----------------|
|-----------0-----------------------------|--------------0-------------0--------------|
|-------2---------------------------------|-----2-----------2-------------------------|
|---3-------------------------------------|-------------------------------------0--2--|
|-----------------------------------------|--0----------------------------------------|


|--0----------------------------------------|--2------------------------------------|
|--3----------------------------------------|--3------------------------------------|
|--0----------------------------------------|--2------------------------------------|
|--2----------------------------------------|--0------------------------------------|
|--3----------------------------------------|---------------------------------------|
|-------------------------------------------|---------------------------------------|
|
|
|-----------------------0------------------|----------------------------------------|
|---------3-------------------3------------|-------3---------3-------------3--------|
|---------0------0---------------0---------|-----2-----2------------2fr----0--------|
|-----2--------------2-----------------0h2-|--0-----------0---------------------2---|
|--3---------------------------------------|----------------------------------------|
|------------------------------------------|----------------------------------------|

                                    Pre-chorus  
|--0------------------------------|----------------------------|-----------------------------|
|--3------------------------------|----------------------------|-----------------------------|
|--0------------------------------|----------------------------|-----------------------------|
|--2------------------------------|----------------------------|-----------------------------|
|--3------------------------------|----------------------------|-----------------------------|
|---------------------------------|----------------------------|-----------------------------|
|
|                                  let ring********    let ring***************************
|-------------------------0-------|-------3-------------3------|-------0------------------3--|
|-------3-----------------3-----0-|----3-------------1---------|-----------------3------1----|
|-------0-----0-----------0--0--0-|----------------------------|----0----0-----2---2---------|
|----2-----------2--------2--2--0-|-0--------------------------|-----------------------------|
|--3----------------3-----3-------|---------------0------------|----------------------3------|
|---------------------------------|----------------------------|-0-----------2---------------|

Gt 1,2
  Let ring***************************************************
|----------3-----------------3----|-------0-----------------------------|---------------||
|-------3----------------1--------|--------------------3----------------|-----7---------||
|---------------------------------|----0-----0------2----2--------------|-----7---------||
|--0------------------------------|-------------------------------------|-----7---------||
|--------------------0------------|-------------------------5-----------|---------------||
|---------------------------------|-0------------2----------------------|---------------||

Chorus

|-------3---2---3------2-3----2----3---|-------3----2----3---2--2--2h3p2---0------|
|----3----3---3----3-5------5----5---5-|----3-----3----3---3----3--3----------3---|
|-5------------------------------------|-0----------------------2--2--------------|
|--------------------------------------|------------------------------------------|
|--------------------------------------|------------------------------------------|
|--------------------------------------|------------------------------------------|

                                          hold for two measures******************* 
|-----3----2----3-----2-3---2----3-----|--2--------------------|------------------|
|---3----3----3---3-5-----5---5-----5--|--3--------------------|------------------|
|-5------------------------------------|--2--------------------|------------------|
|--------------------------------------|--0--------------------|------------------|
|--------------------------------------|-----------------------|------------------|
|--------------------------------------|-----------------------|------------------|

  Outro guitar solo              ~~~~~~~~~~~~                         ~~~~~~~~~~~     
 GT 3
|--17f-------17----15-17f--------17----------|--18-17-------------15-17---------12-------|
|--------------------------------------------|-------------------------------------15f---|
|--------------------------------------------|-------------------------------------------|
|--------------------------------------------|-------------------------------------------|
|--------------------------------------------|-------------------------------------------|
|--------------------------------------------|-------------------------------------------|
|
| GT 1, 2
|--------3-----2----3--------2--3---2----3---|------3-----2----3---2--2---2h3p2----0-----|
|-----3-----3-----3----3--5-------5----5----5|----3----3----3----3----3---3-----------3--|
|--5-----------------------------------------|--0---------------------2---2--------------|
|--------------------------------------------|-------------------------------------------|
|--------------------------------------------|-------------------------------------------|
|--------------------------------------------|-------------------------------------------|


|--15--------------------------------------|---------------------------------------------|
|----------15---12-15-15f------15----------|-------------15------------------------------|
|---------------------------------14f------|-14----------------------------14f----12-----|
|---------------------------------------12-|-------------------------------------------14|
|------------------------------------------|---------------------------------------------|
|------------------------------------------|---------------------------------------------|
|
|
|-------3----2---3-------2-3----2----3-----|-------3----2---3----2---2--2h3p0-----------|
|----3----3----3---3--5-------5----5----5--|----3----3----3----3-----3--3------------3--|
|--5---------------------------------------|-0-----------------------2--2---------------|
|------------------------------------------|--------------------------------------------|
|------------------------------------------|--------------------------------------------|
|------------------------------------------|--------------------------------------------|

   ~~~~~~
|--------------------------12-14-14hb---12---|-------------------------------12-------------------------|
|---------------------12-15----------------15|---12-----------------------------------------------------|
|--12------------12-14-----------------------|-------14p12-----------------------14fr--12---14------12--|
|-----------12-14----------------------------|--------------14p12-------------------------14--14--------|
|---------14---------------------------------|--------------------14-10--12-----------------------------|
|--------------------------------------------|----------------------------------------------------------|
|
|
|------3---2-----3-----------2--3----2---3---|------------3---------2-----3----2--2--2h3p2-----0--------|
|----3---3---3--------3--5--------5----5---5-|----3------------3--------3---3-----3--3-------------3----|
|--5-----------------------------------------|-0----------------------------------2--2------------------|
|--------------------------------------------|----------------------------------------------------------|
|--------------------------------------------|----------------------------------------------------------|
|--------------------------------------------|----------------------------------------------------------|

  ~~~~~~~                    ~~~~~~~
|-----------------------------------------------|------------------------------------------------|
|-----------------------------------------------|------------------------------------------------|
|---------12---14f---14----12--------12-11-12p11|-12hr------14----12-------12--------------------|
|--14--------14---------------14----------------|-------------------14---12-------14-12----------|
|-----------------------------------------------|-------------------------------------------14---|
|-----------------------------------------------|------------------------------------------------|
|
|
|-------3----2--------3----------2--3---2---3---|------3-----2-----3---2------2--2h3p2---0-------|
|-----3----3---3----------3---5-------5---5---5-|---3-----3-----3----3--------3--3----------3----|
|---5-------------------------------------------|-0---------------------------2--2---------------|
|-----------------------------------------------|------------------------------------------------|
|-----------------------------------------------|------------------------------------------------|
|-----------------------------------------------|------------------------------------------------|

  ~~~~~~~                     ~~~
|--------------------------------------------|-----------------------------------------------------------|
|--------------------------------------------|-----------------------------------------12----------------|
|--------14f-14f----12-----------12----------|------------------------12-------------14--14--11------14f-|
|---------------------14-12--14----12--------|----------------12--12------16---1412------------12/10-----|
|-7----------------------------------10----12|----------1014----14---------------------------------------|
|--------------------------------------------|-1210---12-------------------------------------------------|
|
|
|-----3---2---3--------2---3-----2----3------|--------3--------2--------3-------2--2--2h3p2---0----------|
|---3---3---3---3---5----------5---5------5--|-----3-------3-------3--------3------3--3------------3-----|
|-5------------------------------------------|-0-----------------------------------2--2------------------|
|--------------------------------------------|-----------------------------------------------------------|
|--------------------------------------------|-----------------------------------------------------------|
|--------------------------------------------|-----------------------------------------------------------|

      ~~~~~~                                    ~~~~~
|-----------------------------------------|----------------------------------------------------------|
|---------------12------------------------|----15------------------------------------------------12--|
|-12---------15---1514--12--14-----12f----|-------------------11------------------------111214-------|
|-----14------------------14-----14-------|-----------12------------------------121414---------------|
|-----------------------------------------|-----------------------------1012/14----------------------|
|-----------------------------------------|-----------------------1012-------------------------------|
|
|
|-----3---2---3----------2---3-----2--3---|--------3---2---3---2--2--2h3p2----0-----------0----------|
|---3---3---3-----3---5---------5---5---5-|------3---3---3---3----3--3------------3-----------3------|
|-5---------------------------------------|----0------------------2--2----------------0----------0---|
|-----------------------------------------|-----------------------0--0-------------------------------|
|-----------------------------------------|----------------------------------------------------------|
|-----------------------------------------|----------------------------------------------------------|

   ~~~~~~~~                   ~~~~~ 
|-----------------------------------------|--------------------------------------------------|
|-13--------------------------------------|--------------------------------------------------|
|-----------14fr---12-14p12--12--14f----12|---12--12-14fr------12-14-----12fr--------12------|
|-----------------------------------------|--------------------------------------------------|
|-----------------------------------------|--------------------------------------------------|
|-----------------------------------------|--------------------------------------------------|
|
|
|-----3---2---3----------2--3-----2---3---|-------3---2---3------2--2--2h3p2----0------------|
|---3---3---3------3--5--------5----5---5-|-----3---3---3---3-------3--3--------------3------|
|-5---------------------------------------|---0---------------------2--2---------------------|
|-----------------------------------------|-------------------------0--0---------------------|
|-----------------------------------------|--------------------------------------------------|
|-----------------------------------------|--------------------------------------------------|

  ~~~~~                                                  ~~~~~     ~~~~~~~~~
|--------------------------------------------|-------------------------------17fr-----15---|
|---------------------------15---------------|--------------------15-----------------------|
|-12-------14fr----12-14p12----14----------12|--14------11-----14f-------------------------|
|--------------------------------------------|---------------------------------------------|
|--------------------------------------------|---------------------------------------------|
|--------------------------------------------|---------------------------------------------|
|
|
|-----3-----2----3------2-3----2----3--------|-------3----2----3-----2--2h3p2----0---------|
|---3----3----3-----3-5------5----5------5---|----3-----3---3-----3--3--3------------3-----|
|-5------------------------------------------|--0--------------------2--2------------------|
|--------------------------------------------|---------------------------------------------|
|--------------------------------------------|---------------------------------------------|
|--------------------------------------------|---------------------------------------------|

  ~~~~~~~                                                        ~~~~~~~~~~~~~~~~
|-15--------17fr-p15-17p15--15-17f-------15-|-17---15-17f----15/22---------------14--15--|
|-------------------------------------------|--------------------------------------------|
|-------------------------------------------|--------------------------------------------|
|-------------------------------------------|--------------------------------------------|
|-------------------------------------------|--------------------------------------------|
|-------------------------------------------|--------------------------------------------|
|
|
|-----3---2-----3-------2-3-----2-----3-----|-----3----2----3-----2--2--2h3p2---0-------|
|---3---3----3-----3-5-------5-----5-----5--|---3----3---3-----3-----3--3-----------3---|
|-5-----------------------------------------|-0----------------------2--2---------------|
|-------------------------------------------|-------------------------------------------|
|-------------------------------------------|-------------------------------------------|
|-------------------------------------------|-------------------------------------------|
comments
We did not receive enough feedback on this tab! Please rate:
print report bad tab
1 2 3 4 5
I want to post or [tab]
guest
You may want to rate the tab now too:
select rating
Please do not post tabs as comments. Select "correction" instead!