Oops, an error
Loading. Please wait.

Piece Of Me Tab

ver1
ver1

Whole song

Interactive

More versions @911Tabs.com
10,539 views 21 this week
no commentswrite comment
1 2 3 4 5
excellent!
x 2
Autoscroll
+/-
esc
set tempo
stop
Hey! There's an official Ultimate Guitar app which is ideal
for learning songs when you're away from computer. Get the app
WARNING: You are trying to view
                                    content from Ultimate-Guitar.com
                                    in an unauthorized application,
                                    which is prohibited.

                                    Please use an official Ultimate
                                    Guitar Tabs application for iPhone,
                                    iPad or Android to access legitimate
                                    chords, guitar, bass, and drum tabs
                                    from Ultimate-Guitar.com database.

                                    Type "ultimate guitar tabs" in Apple
                                    App Store's or Android Market's
                                    search to find the application.
Song: Piece of me
by Skid Row
Transcribed by silk moth 
Chords:
          A5                   D5                   C5                   G5
      x 0 2 2 x 0          x 5 7 7 x 5          x 3 5 5 x 3          3 5 5 x x 3

          B5
      x 2 4 4 0 2


Standard tuning
Listen for open chords...and chords at 5th fret and so on since i didnt specify. But you
should be able to pick that out on the record.

 Intro


  Gtr I
                                        \2.5/   \2.5/   \2.5/   \2.5/
|-----------|-12--------|-----------|-----------------------------------|
|--------12-|-----------|-----------|-----------------------------------|
|-----------|-----------|-12--------|-(12)-----12------12------12-------|
|-----------|-----------|-12--------|-(12)-----12------12------12-------|
|-----------|-----------|-----------|-----------------------------------|
|-----------|-----------|-----------|-----------------------------------|


                       Verse 1
    Gtr I               Gtr I
                     4x
||-------------------||-------0-(0)-------|-(0)---------------|
||o-----------------o||-------0-(0)-------|-(0)---------------|
||-------------------||-------9-(9)-------|-(9)---------------|
||-------------------||-------9-(9)-------|-(9)---------------|
||o-----------------o||-------7-(7)-------|-(7)---------------|
||--0-0-7-6-5-0-2h3--||-0-0-0-0-(0)-------|-(0)---------------|
|
|                       Gtr II
|                    4x
||-------------------||-------------------|-------------------|
||o-----------------o||-------------------|-------------------|
||-------------------||-------------------|-------------------|
||-------------------||-------------------|-------------------|
||o-----------------o||-------------------|-------------------|
||-------------------||-0-0-7-6--5--0-2h3-|--0--0-7-6-5-0-2h3-|


  Gtr I
|-(0)---------------|-0----------------------|-0-0-----------0---|
|-(0)---------------|-0----------------------|-0-----0-(0)-------|
|-(9)---------------|-9----------------------|-9---9-------------|
|-(9)---------------|-9---/12-12-(12)\-------|-9-----------------|
|-(7)---------------|-7---/12-12-(12)\-------|-7-----------------|
|-(0)---------------|-0------------------0---|-0-----------------|
|
| Gtr II
|-------------------|------------------------|-------------------|
|-------------------|------------------------|-------------------|
|-------------------|------------------------|-------------------|
|-------------------|------------------------|-------------------|
|-------------------|------------------------|-------------------|
|--0--0-7-6-5-0-2h3-|-0-0---7--6---5---0-2h3-|-0-0-7-6--5--0-2h3-|


  Gtr I
|-(0)-----------------------|
|---------------------------|
|---------------------------|
|---------------------------|
|---------------------------|
|---------------------------|
|
| Gtr II
|---------------------------|
|---------------------------|
|---------------------------|
|---------------------------|
|---------------------------|
|--0---0--7--6--5--0--2h=3--|


   T    T    T    T    T        T
|----------------------------------------|-------------------------|
|----------------------------------------|-------------------------|
|---------------------12p7h9p7-12p7-(7)--|----------x--7-----------|
|-----------12p7-14p9--------------------|-------------------------|
|-12p7-14p7------------------------------|-------------------------|
|----------------------------------------|-------------------------|
|
|----------------------------------------|-------------------------|
|----------------------------------------|-------------------------|
|----------------------------------------|-------------------------|
|----------------------------------------|-------------------------|
|----------------------------------------|-------------------------|
|--0----0----7----6----5---0----2h===3---|-0--0--7--6--5--0--2h=3--|


 Chorus
  A5                 D5    C5
  Gtr II

  Gtr I
|--------------|-----------8-8---|-----------------|-----------------|
|------------9s|=10--10-10-7-7---|-----------------|-----------------|
|-2----(2)---8s|==9---7--7-7-7---|-----------------|-----------------|
|-2----(2)---6s|==7---7--7-------|-----------------|-----------------|
|-0----(0)-----|-----------------|-----------------|-----------------|
|--------------|-----------------|-0-0-7-6-5-0-2h3-|-0-0-7-6-5-0-2h3-|


  A5                              G5


|-----------------------|---------8-----8--8------|
|--------------------9s=|=10--10--8-----8--8------|
|-2------------------8s=|==9---9--7--7--7--7------|
|-2------------------6s=|==7---7------------------|
|-0------0--0--0--0-----|-------------------------|
|-----------------------|-------------------------|


  B5                                    G5

|---------------------------|-11--------3----3----|
|-4--4--4--4--4--4--4--5S12-|-12--------3----3----|
|-4--4--4--4--4--4--4-------|-11--------0----0----|
|-4--4--4--4--4--4--4-------|-----------0----0----|
|---------------------------|---------------------|
|---------------------------|-----------3----3----|


   Repeat Main Riff    Verse 2
    Gtrs I, II          Gtr I
                     4x
||-------------------||-------0-(0)-------|-(0)---------------|
||o-----------------o||-------0-(0)-------|-(0)---------------|
||-------------------||-------9-(9)-------|-(9)---------------|
||-------------------||-------9-(9)-------|-(9)---------------|
||o-----------------o||-------7-(7)-------|-(7)---------------|
||--0-0-7-6-5-0-2h3--||-0-0-0-0-(0)-------|-(0)---------------|
|
|                       Gtr II
|                    4x
||-------------------||-------------------|-------------------|
||o-----------------o||-------------------|-------------------|
||-------------------||-------------------|-------------------|
||-------------------||-------------------|-------------------|
||o-----------------o||-------------------|-------------------|
||-------------------||-0-0-7-6--5--0-2h3-|--0--0-7-6-5-0-2h3-|


|-(0)---------------|-(0)---------------|-0---------------|-(0)---------------|
|-(0)---------------|-(0)---------------|-0---------------|-(0)---------------|
|-(9)---------------|-(9)---------------|-9---------------|-(9)---------------|
|-(9)---------------|-(9)---------------|-9---------------|-(9)---------------|
|-(7)---------------|-(7)---------------|-7---------------|-(7)---------------|
|-(0)---------------|-(0)---------------|-0---------------|-(0)---------------|
|
|-------------------|-------------------|-----------------|-------------------|
|-------------------|-------------------|-----------------|-------------------|
|-------------------|-------------------|-----------------|-------------------|
|-------------------|-------------------|-----------------|-------------------|
|-------------------|-------------------|-----------------|-------------------|
|--0--0-7-6-5-0-2h3-|--0--0-7-6-5-0-2h3-|-0-0-7-6-5-0-2h3-|--0--0-7-6-5-0-2h3-|


  Gtr I
  /4\   /4\    /2\         \4   /4\   /6\
  ~~~~~~~~~~
|-2-----2-----(2)--------|-2----2-----2---------||
|------------------------|----------------------||
|------------------------|----------------------||
|------------------------|----------------------||
|------------------------|----------------------||
|------------------------|----------------------||
|
| Gtr II
|------------------------|----------------------||
|------------------------|----------------------||
|------------------------|----------------------||
|------------------------|----------------------||
|------------------------|----------------------||
|-0---0-7---6--5---0-2h3-|-0--0-7---6-5---0-2h3-||


 Chorus
  A5               A5  G5
  Gtr II


                             ~
|----------------|---------------|
|----------------|---------------|
|-2----(2)-2-0-1-|-2---2---5-5---|
|-2----(2)---0-1-|-2---2---5-5---|
|-0----(0)-------|---0---0-------|
|----------------|---------------|
|
|----------------|---------------|
|----------------|---------------|
|----------------|---------------|
|----------------|---------------|
|----------------|---------------|
|----------------|---------------|


                                      A5      A5            G5   A5
                                      Gtr II
                                     

  Gtrs I, II                          Gtr I
|-----------------|-----------------|-----------------|----------------|
|-----------------|-----------------|-----------------|-----3--3-3-----|
|-----------------|-----------------|-1h2-----2-----1h|=2-2-2--2-2-2-3-|
|-----------------|-----------------|-1h2-----2-----1h|=2-2--------2-3-|
|-----------------|-----------------|-----0-0---0-0---|----------------|
|-0-0-7-6-5-0-2h3-|-0-0-7-6-5-0-2h3-|-----------------|----------------|


  B5                     G5
 

                                 Gtr I
|----------------|-------3--3--|-----------------|------------------||
|----------------|-12----3--3--|-----------------|-x\---------------||
|-4----(4)-----2S|=11----0--0--|-----------------|-x\---------------||
|-4----(4)-2h4---|-------0--0--|-----------------|-x\---------------||
|----------------|-------------|-----------------|-x\---------------||
|----------------|-------3--3--|-0-0-7-6-5-0-2h3-|------------------||
|
|                                Gtr II
|----------------|-------------|-----------------|------------------||
|----------------|-------------|-----------------|------------------||
|----------------|-------------|-----------------|------------------||
|----------------|-------------|-----------------|------------------||
|----------------|-------------|-----------------|------------------||
|----------------|-------------|-0-0-7-6-5-0-2h3-|-0--0-7-6-5-0-2h3-||


 Bridge
  D5                                     A5
  Gtr II


  Gtr I
                  ~~~~~~~~~       ~~~        PM|
|--------------------|-----------------|--------------|
|-3----3---------[3]-|-(3)-------[3]---|--------------|
|-2----2-----[2]-----|-------2---------|-2-------2--2-|
|-0----0-[0]---------|-------2---------|-2-------2--2-|
|--------------------|-----0-0---------|-0---3-4------|
|--------------------|-----------------|--------------|


                       B5                             A5
 

                                                          Gtrs I, II
             ~~~          PM--|   PM|     PM--------|
|--------------------|----------------|-----------------|--------------------|
|--------------------|----------------|-----------------|--------------------|
|-(2)------------2-3-|-4--------4-----|-4---------------|-----------------2--|
|-(2)-----2-[4]--2-3-|-4--------4-2-2-|-4---------------|-----------------2--|
|-----3-4------------|----2-2-2-------|---2-2-2-2-2-2-0-|-----------------0--|
|--------------------|----------------|-----------------|-3b4p0-0-3b4p0-0----|


             Guitar Solo
           Gtr II
            

  Gtr I    Gtr I
  <
|----------||-----------------------------------|----------------------------|
|----------||-----------------------------------|-14b15-----14b15-----14b15--|
|-7--------||-14b16==[14]-14-[14]-14-[14]-14p12-|-14b15--14-14b15--14-14b15--|
|-7--------||-----------------------------------|----------------------------|
|----------||-----------------------------------|----------------------------|
|----------||-----------------------------------|----------------------------|

|-------------------15p12-------------17p15-------|
|-15p12-------------------15p12-------------17p15-|
|-------14p12-------------------14p12-------------|
|-------------14p12-------------------------------|
|-------------------------------------------------|
|-------------------------------------------------|


 
|----------------------3s===19b22--|-(19)----19----14b15----14----|
|-17b20r===(17)----17--------------|------------------------------|
|----------------------------------|------------------------------|
|----------------------------------|------------------------------|
|----------------------------------|------------------------------|
|----------------------------------|------------------------------|
                                    \1/
|------------------------12----------------|
|-14b15r(14)p12--------------------15------|
|---------------14-12h13-----13------------|
|------------------------------------------|
|------------------------------------------|
|------------------------------------------|                                                  ~~~~~~~~~~~~~~~~~~~~~~~~~
|---------------------------------------|--------22b24--(22)b24----(22)b24----||
|---------------------------------------|-------------------------------------||
|-12-(12)s7-7-(7)s0-0----2b4r=(2)p0-----|-------------------------------------||
|-----------------------------------2p0-|-------------------------------------||
|---------------------------------------|-------------------------------------||
|---------------------------------------|-0-----------------------------------||


 Verse 3

|-------0-(0)----|-(0)--------|-(0)--------|-(0)--------|
|-------0-(0)----|-(0)--------|-(0)--------|-(0)--------|
|-------9-(9)----|-(9)--------|-(9)--------|-(9)--------|
|-------9-(9)----|-(9)--------|-(9)--------|-(9)--------|
|-------7-(7)----|-(7)--------|-(7)--------|-(7)--------|
|-0-0-0-0-(0)----|-(0)--------|-(0)--------|-(0)--------|                                           T    T    T    T    T    T    T
|-0----------------|-(0)----------------|------------------------------------------|
|-0----------------|-(0)----------------|------------------------------------------|
|-9----------------|-(9)----------------|---------------------12p7-14p9-12p7-(7)\--|
|-9----------------|-(9)----------------|------14p9-12p7-14p9----------------------|
|-7----------------|-(7)----------------|-12p7-------------------------------------|
|-0----------------|-(0)----------------|------------------------------------------|
|-0----------------------------------------------||
|----15b17----(15)b17--17b20--(17)b20------------||
|--------------------------------------16s19-----||
|------------------------------------------------||
|------------------------------------------------||
|------------------------------------------------||


 Chorus 3
  A5
  Gtr II
  

  Gtr I                          Gtrs I, II
                           ~
|--------------|---------------|-----------------|
|--------------|---------------|-----------------|
|-2----------1-|-2---2---5-5---|-----------------|
|-2----------1-|-2---2---5-5---|-----------------|
|-0----0-0-0---|---0---0-------|-----------------|
|--------------|---------------|-0-0-7-6-5-0-2h3-|


  Gtrs I, II        Gtr I
|-----------------|---------------|------------------|
|-----------------|---------------|------------------|
|-----------------|-1-2-----2---1-|-2--------------3-|
|-----------------|-1-2-----2---1-|-2--------------3-|
|-----------------|---------------|------------------|
|-0-0-7-6-5-0-2h3-|---------------|------------------|
|
|                   Gtr II
|-----------------|---------------|---10-10--5-5-----|
|-----------------|---------------|---10-10--5-5-----|
|-----------------|-2-----2-2-----|-2--9--9--5h6-----|
|-----------------|-2-----2-2-----|-2------------7---|
|-----------------|-0-0-0-0-0-----|-0----------------|
|-----------------|---------------|------------------|


  B5                       G5
  Gtr II


  Gtr I
                                                                        8x
|------------------|-------3--3--||------------------|------------------||
|------------------|-12----3--3--||o-----------------|-----------------o||
|-4-4-4-4-4-4-4-4/-|-11----0--0--||------------------|------------------||
|-4-4-4-4-4-4-4-4/-|-------0--0--||------9-8-7-------|------------------||
|------------------|-------------||o-----------------|-----9-8-7-------o||
|------------------|-------3--3--||--0-0-------0-2h3-|-0-0-------0-2h3--||


            ~
|--------------|----------|------------|-------|
|--------------|----------|------------|-------|
|--------------|----------|------------|-9\----|
|--------------|-2--------|-(2)--------|-9\----|
|-----9-8------|-2--------|-(2)--------|-7\----|
|-0-0-----3-3--|-0--------|-(0)--------|-------|
comments
We did not receive enough feedback on this tab! Please rate:
print report bad tab
1 2 3 4 5
I want to post or [tab]
guest
You may want to rate the tab now too:
select rating
Please do not post tabs as comments. Select "correction" instead!