Oops, an error
Loading. Please wait.

Sweet Suburbia Bass Tab

299 views 1 this week
no commentswrite comment
1 2 3 4 5
please rate
Autoscroll
+/-
esc
set tempo
stop
WARNING: You are trying to view
                                    content from Ultimate-Guitar.com
                                    in an unauthorized application,
                                    which is prohibited.

                                    Please use an official Ultimate
                                    Guitar Tabs application for iPhone,
                                    iPad or Android to access legitimate
                                    chords, guitar, bass, and drum tabs
                                    from Ultimate-Guitar.com database.

                                    Type "ultimate guitar tabs" in Apple
                                    App Store's or Android Market's
                                    search to find the application.
-------------------------------------------------------------------------------
			     Sweet Suburbia - The Skids 
-------------------------------------------------------------------------------
Tabbed by: Mick 2009
Email:

Tuning: Standard



             Q    Q    E  E  Q       Q    Q    Q    Q     
G||-------|-----------------------|----------------------|
D||-------|------------2--2-------|------------3----5----|
A||-------|--3--------------------|--0-------------------|
E||-------|-----------------------|----------------------|


  Q    Q    E  E  Q       Q    Q    Q    Q       E  E  E  E  E  E  E  E   
-----------------------|----------------------|--------------------------|
------------2--2-------|------------3----5----|--5--5--5--5--5--5--5--5--|
--3--------------------|--0-------------------|--------------------------|
-----------------------|----------------------|--------------------------|


  E  E  E  E  E  E  E  E     E  E  E  E  E  E  E  E   
--------------------------|--------------------------|
--5--5--5--5--5--5--5--5--|--5--5--5--5--5--5--5--5--|
--------------------------|--------------------------|
--------------------------|--------------------------|


  E  E  E  E  E  E  E  E     E  E  E  E  E  E  E  E   
--------------------------|--------------------------|
--5--5--3--3--2--2--0--0--|-----2--3--5-----2--3--5--|
--------------------------|--3-----------3-----------|
--------------------------|--------------------------|


  E  E  E  E  E  E  E  E     E  E  E  E  E  E  E  E   
--------------------------|--------------------------|
-----2--3--5--5-----------|-----2--3--5-----2--3--5--|
--3-----------------------|--3-----------3-----------|
-----------------3--3--3--|--------------------------|


  E  E  E  E  E  E  E  E     E  E  E  E  E  E  E  E   
--------------------------|--------------------------|
-----2--3--5--5-----------|-----2--3--5-----2--3--5--|
--3-----------------------|--3-----------3-----------|
-----------------3--3--3--|--------------------------|


  E  E  E  E  E  E  E  E     E  E  E  E  E  E  E  E   
--------------------------|--------------------------|
-----2--3--5--5-----------|-----2--3--5-----2--3--5--|
--3-----------------------|--3-----------3-----------|
-----------------3--3--3--|--------------------------|


  E  E  E  E  E  E  E  E     E  E  E  E  E  E  E  E   
--------------------------|--------------------------|
-----2--3--5--5-----------|-----2--3--5-----2--3--5--|
--3-----------------------|--3-----------3-----------|
-----------------3--3--3--|--------------------------|


  E  E  E  E  E  E  E  E     E  E  E  E  E  E  E  E   
--------------------------|--------------------------|
-----2--3--5--5-----------|-----2--3--5-----2--3--5--|
--3-----------------------|--3-----------3-----------|
-----------------3--3--3--|--------------------------|


  E  E  E  E  E  E  E  E     Q    Q    E  E  Q       Q    Q    E  E  Q     
--------------------------|-----------------------|-----------------------|
-----2--3--5--5-----------|-------2----5----------|-------2----5----------|
--3-----------------------|--3--------------------|--3--------------------|
-----------------3--3--3--|---------------3--3----|---------------3--3----|


  E  E  E  E  E  E  E  E     E  E  E  E  E  E  E  E   
--------------------------|--------------------------|
-----2--3--5-----2--3--5--|-----2--3--5--5-----------|
--3-----------3-----------|--3-----------------------|
--------------------------|-----------------3--3--3--|


  E  E  E  E  E  E  E  E     E  E  E  E  E  E  E  E   
--------------------------|--------------------------|
-----2--3--5-----2--3--5--|-----2--3--5--5-----------|
--3-----------3-----------|--3-----------------------|
--------------------------|-----------------3--3--3--|


  E  E  E  E  E  E  E  E     E  E  E  E  E  E  E  E   
--------------------------|--------------------------|
-----2--3--5-----2--3--5--|-----2--3--5--5-----------|
--3-----------3-----------|--3-----------------------|
--------------------------|-----------------3--3--3--|


  E  E  E  E  E  E  E  E     E  E  E  E  E  E  E  E   
--------------------------|--------------------------|
-----2--3--5-----2--3--5--|-----2--3--5--5-----------|
--3-----------3-----------|--3-----------------------|
--------------------------|-----------------3--3--3--|


  E  E  E  E  E  E  E  E     E  E  E  E  E  E  E  E   
--------------------------|--------------------------|
-----2--3--5-----2--3--5--|-----2--3--5--5-----------|
--3-----------3-----------|--3-----------------------|
--------------------------|-----------------3--3--3--|


  E  E  E  E  E  E  E  E     E  E  E  E  E  E  E  E     Q    Q    E  E  Q     
--------------------------|--------------------------|-----------------------|
-----2--3--5-----2--3--5--|-----2--3--5--5-----------|-------2----5----------|
--3-----------3-----------|--3-----------------------|--3--------------------|
--------------------------|-----------------3--3--3--|---------------3--3----|


  Q    Q    E  E  Q       E  E  E  E  E  E  E  E     E  E  E  E  E  E  E  E   
-----------------------|--------------------------|--------------------------|
-------2----5----------|-----2--3--5-----2--3--5--|-----2--3--5--5-----------|
--3--------------------|--3-----------3-----------|--3-----------------------|
---------------3--3----|--------------------------|-----------------3--3--3--|


  Q    Q    E  E  Q       Q    Q    E  E  Q               Q    Q    E  E  Q     
-----------------------|-----------------------|-------|-----------------------|
-------2----5----------|-------2----5----------|-------|------------2--2-------|
--3--------------------|--3--------------------|-------|--3--------------------|
---------------3--3----|---------------3--3----|-------|-----------------------|


  Q    Q    Q    Q       Q    Q    E  E  Q       Q    Q    Q    Q     
----------------------|-----------------------|----------------------|
------------3----5----|------------2--2-------|------------3----5----|
--0-------------------|--3--------------------|--0-------------------|
----------------------|-----------------------|----------------------|


  Q    Q    E  E  Q       Q    Q    Q    Q       E  E  E  E  E  E  E  E   
-----------------------|----------------------|--------------------------|
------------2--2-------|------------3----5----|--5--5--5--5--5--5--5--5--|
--3--------------------|--0-------------------|--------------------------|
-----------------------|----------------------|--------------------------|


  E  E  E  E  E  E  E  E     E  E  E  E  E  E  E  E   
--------------------------|--------------------------|
--5--5--5--5--5--5--5--5--|--5--5--5--5--5--5--5--5--|
--------------------------|--------------------------|
--------------------------|--------------------------|


  E  E  E  E  E  E  E  E     E  E  E  E  E  E  E  E   
--------------------------|--------------------------|
--5--5--3--3--2--2--0--0--|-----2--3--5-----2--3--5--|
--------------------------|--3-----------3-----------|
--------------------------|--------------------------|


  E  E  E  E  E  E  E  E     E  E  E  E  E  E  E  E   
--------------------------|--------------------------|
-----2--3--5--5-----------|-----2--3--5-----2--3--5--|
--3-----------------------|--3-----------3-----------|
-----------------3--3--3--|--------------------------|


  E  E  E  E  E  E  E  E     E  E  E  E  E  E  E  E   
--------------------------|--------------------------|
-----2--3--5--5-----------|-----2--3--5-----2--3--5--|
--3-----------------------|--3-----------3-----------|
-----------------3--3--3--|--------------------------|


  E  E  E  E  E  E  E  E     E  E  E  E  E  E  E  E   
--------------------------|--------------------------|
-----2--3--5--5-----------|-----2--3--5-----2--3--5--|
--3-----------------------|--3-----------3-----------|
-----------------3--3--3--|--------------------------|


  E  E  E  E  E  E  E  E     Q    Q    E  E  Q       Q    Q    E  E  Q     
--------------------------|-----------------------|-----------------------|
-----2--3--5--5-----------|-------2----5----------|-------2----5----------|
--3-----------------------|--3--------------------|--3--------------------|
-----------------3--3--3--|---------------3--3----|---------------3--3----|


  E  E  E  E  E  E  E  E     E  E  E  E  E  E  E  E     Q    Q    E  E  Q     
--------------------------|--------------------------|-----------------------|
-----2--3--5-----2--3--5--|-----2--3--5--5-----------|-------2----5----------|
--3-----------3-----------|--3-----------------------|--3--------------------|
--------------------------|-----------------3--3--3--|---------------3--3----|


  Q    Q    E  E  Q       E  E  E  E  E  E  E  E     E  E  E  E  E  E  E  E   
-----------------------|--------------------------|--------------------------|
-------2----5----------|-----2--3--5-----2--3--5--|-----2--3--5--5-----------|
--3--------------------|--3-----------3-----------|--3-----------------------|
---------------3--3----|--------------------------|-----------------3--3--3--|


  E  E  E  E  E  E  E  E     E  E  E  E  E  E  E  E   
--------------------------|--------------------------|
-----2--3--5-----2--3--5--|-----2--3--5--5-----------|
--3-----------3-----------|--3-----------------------|
--------------------------|-----------------3--3--3--|


  E  E  E  E  E  E  E  E     E  E  E  E  E  E  E  E   
--------------------------|--------------------------|
-----2--3--5-----2--3--5--|-----2--3--5--5-----------|
--3-----------3-----------|--3-----------------------|
--------------------------|-----------------3--3--3--|


  E  E  E  E  E  E  E  E     E  E  E  E  E  E  E  E   
--------------------------|--------------------------|
-----2--3--5-----2--3--5--|-----2--3--5--5-----------|
--3-----------3-----------|--3-----------------------|
--------------------------|-----------------3--3--3--|


  E  E  E  E  E  E  E  E     E  E  E  E  E  E  E  E         
--------------------------|--------------------------|-----|
-----2--3--5-----2--3--5--|-----2--3--5--5-----------|-----|
--3-----------3-----------|--3-----------------------|-----|
--------------------------|-----------------3--3--3--|-----|


  Q    Q    E  E  Q       E  E  E  E  E  E  E  E     Q    Q    E  E  Q     
-----------------------|--------------------------|-----------------------|
-------2----5----------|-----2--3--5-----2--3--5--|-------2----5----------|
--3--------------------|--3-----------3-----------|--3--------------------|
---------------3--3----|--------------------------|---------------3--3----|


  E  E  E  E  E  E  E  E     Q    Q    E  E  Q       E  E  E  E  E  E  E  E   
--------------------------|-----------------------|--------------------------|
-----2--3--5-----2--3--5--|-------2----5----------|-----2--3--5-----2--3--5--|
--3-----------3-----------|--3--------------------|--3-----------3-----------|
--------------------------|---------------3--3----|--------------------------|


  Q    Q    E  E  Q       E  E  E  E  E  E  E  E     Q    Q    E  E  Q     
-----------------------|--------------------------|-----------------------|
-------2----5----------|-----2--3--5-----2--3--5--|-------2----5----------|
--3--------------------|--3-----------3-----------|--3--------------------|
---------------3--3----|--------------------------|---------------3--3----|


  E  E  E  E  E  E  E  E     Q    Q    E  E  Q       E  E  E  E  E  E  E  E   
--------------------------|-----------------------|--------------------------|
-----2--3--5-----2--3--5--|-------2----5----------|-----2--3--5-----2--3--5--|
--3-----------3-----------|--3--------------------|--3-----------3-----------|
--------------------------|---------------3--3----|--------------------------|


  Q    Q    E  E  Q       E  E  E  E  E  E  E  E     Q    Q    E  E  Q     
-----------------------|--------------------------|-----------------------|
-------2----5----------|-----2--3--5-----2--3--5--|-------2----5----------|
--3--------------------|--3-----------3-----------|--3--------------------|
---------------3--3----|--------------------------|---------------3--3----|


  E  E  E  E  E  E  E  E                
--------------------------|-----|-----||
-----2--3--5-----2--3--5--|-----|-----||
--3-----------3-----------|-----|-----||
--------------------------|-----|-----||




Duration Legend
---------------
W - whole
H - half
Q - quarter
E - 8th
S - 16th
T - 32nd
X - 64th
. - note dotted
|-n-|  - n-tuplets
comments
We did not receive enough feedback on this tab! Please rate:
print report bad tab
1 2 3 4 5
I want to post or [tab]
guest
You may want to rate the tab now too:
select rating
Please do not post tabs as comments. Select "correction" instead!