Oops, an error
Loading. Please wait.

Sweet Suburbia Tab

724 views 3 this week
no commentswrite comment
1 2 3 4 5
please rate
Autoscroll
+/-
esc
set tempo
stop
Hey! There's an official Ultimate Guitar app which is ideal
for learning songs when you're away from computer. Get the app
WARNING: You are trying to view
                                    content from Ultimate-Guitar.com
                                    in an unauthorized application,
                                    which is prohibited.

                                    Please use an official Ultimate
                                    Guitar Tabs application for iPhone,
                                    iPad or Android to access legitimate
                                    chords, guitar, bass, and drum tabs
                                    from Ultimate-Guitar.com database.

                                    Type "ultimate guitar tabs" in Apple
                                    App Store's or Android Market's
                                    search to find the application.
-------------------------------------------------------------------------------
                             Sweet Suburbia - The Skids 
-------------------------------------------------------------------------------
Tabbed by: Mick 2009
Email:

Tuning: Standard


Guitar 1
              H          H            H         Q     Q      
E||-------|------------------------|------------------------|
B||-------|-------------11b--------|------------------------|
G||-------|--11b-------------------|--8b--------4b----6b----|
D||-------|------------------------|------------------------|
A||-------|------------------------|------------------------|
E||-------|------------------------|------------------------|

Guitar 2

             Q     Q    Q     Q       Q    Q    Q    Q     
E||-------|------------------------|-------5----3----5----|
B||-------|-------10---------12----|----------------------|
G||-------|------------------------|----------------------|
D||-------|------------------------|----------------------|
A||-------|------------------------|----------------------|
E||-------|------------------------|----------------------|

Guitar 1
   H          H            H         Q     Q        Q     Q     Q     Q      
------------------------|------------------------|--------------------------|
-------------11b--------|------------------------|--------------------------|
--11b-------------------|--8b--------4b----6b----|--6b----6b----6b----6b----|
------------------------|------------------------|--------------------------|
------------------------|------------------------|--------------------------|
------------------------|------------------------|--------------------------|

Guitar 2
  Q     Q    Q     Q       Q    Q    Q    Q        Q      Q      Q      Q      
------------------------|-------5----3----5----|------------------------------|
-------10---------12----|----------------------|------------------------------|
------------------------|----------------------|--11b----11b----11b----11b----|
------------------------|----------------------|------------------------------|
------------------------|----------------------|------------------------------|
------------------------|----------------------|------------------------------|

Guitar 1
  Q     Q     Q     Q        Q     Q     Q     Q      
--------------------------|--------------------------|
--------------------------|--------------------------|
--6b----6b----6b----6b----|--6b----6b----6b----6b----|
--------------------------|--------------------------|
--------------------------|--------------------------|
--------------------------|--------------------------|

Guitar 2
   Q      Q      Q      Q         Q      Q      Q      Q      
------------------------------|------------------------------|
------------------------------|------------------------------|
--11b----11b----11b----11b----|--11b----11b----11b----11b----|
------------------------------|------------------------------|
------------------------------|------------------------------|
------------------------------|------------------------------|

Guitar 1
  Q     Q     Q     Q        E  E  E  Q    E  E  E     E  E  E  Q    E  Q     
--------------------------|-------------------------|------------------------|
--------------------------|--3--5--5-------5--3--1--|--3--5--1---------------|
--6b----6b----6b----6b----|-------------------------|----------------0--0----|
--------------------------|-------------------------|------------------------|
--------------------------|-------------------------|------------------------|
--------------------------|-------------------------|------------------------|

Guitar 2
   Q      Q      Q      Q      
------------------------------|
------------------------------|
--11b----11b----11b----11b----|
------------------------------|
------------------------------|
------------------------------|

Guitar 1

  E  E  E  Q    E  E  E     E  E  E  Q    E  Q       E  E  E  Q    E  E  E   
-------------------------|------------------------|-------------------------|
--3--5--5-------5--3--1--|--3--5--1---------------|--3--5--5-------5--3--1--|
-------------------------|----------------0--0----|-------------------------|
-------------------------|------------------------|-------------------------|
-------------------------|------------------------|-------------------------|
-------------------------|------------------------|-------------------------|


  E  E  E  Q    E  Q       E  E  E  Q    E  E  E     E  E  E  Q    E  Q     
------------------------|-------------------------|------------------------|
--3--5--1---------------|--3--5--5-------5--3--1--|--3--5--1---------------|
----------------0--0----|-------------------------|----------------0--0----|
------------------------|-------------------------|------------------------|
------------------------|-------------------------|------------------------|
------------------------|-------------------------|------------------------|


  E  E  E  Q    E  E  E     E  E  E  Q    E  Q       E  E  E  Q    E  E  E   
-------------------------|------------------------|-------------------------|
--3--5--5-------5--3--1--|--3--5--1---------------|--3--5--5-------5--3--1--|
-------------------------|----------------0--0----|-------------------------|
-------------------------|------------------------|-------------------------|
-------------------------|------------------------|-------------------------|
-------------------------|------------------------|-------------------------|


  E  E  E  Q    E  Q       Q    Q    E  E  Q       Q    Q    E  E  Q     
------------------------|-------5----3----------|-------5----3----------|
--3--5--1---------------|--5------------3--3----|--5------------3--3----|
----------------0--0----|-----------------------|-----------------------|
------------------------|-----------------------|-----------------------|
------------------------|-----------------------|-----------------------|
------------------------|-----------------------|-----------------------|


  E  E  E  Q    E  E  E     E  E  E  Q    E  Q       E  E  E  Q    E  E  E   
-------------------------|------------------------|-------------------------|
--3--5--5-------5--3--1--|--3--5--1---------------|--3--5--5-------5--3--1--|
-------------------------|----------------0--0----|-------------------------|
-------------------------|------------------------|-------------------------|
-------------------------|------------------------|-------------------------|
-------------------------|------------------------|-------------------------|


  E  E  E  Q    E  Q       E  E  E  Q    E  E  E     E  E  E  Q    E  Q     
------------------------|-------------------------|------------------------|
--3--5--1---------------|--3--5--5-------5--3--1--|--3--5--1---------------|
----------------0--0----|-------------------------|----------------0--0----|
------------------------|-------------------------|------------------------|
------------------------|-------------------------|------------------------|
------------------------|-------------------------|------------------------|


  E  E  E  Q    E  E  E     E  E  E  Q    E  Q       E  E  E  Q    E  E  E   
-------------------------|------------------------|-------------------------|
--3--5--5-------5--3--1--|--3--5--1---------------|--3--5--5-------5--3--1--|
-------------------------|----------------0--0----|-------------------------|
-------------------------|------------------------|-------------------------|
-------------------------|------------------------|-------------------------|
-------------------------|------------------------|-------------------------|


  E  E  E  Q    E  Q       E  E  E  Q    E  E  E     E  E  E  Q    E  Q     
------------------------|-------------------------|------------------------|
--3--5--1---------------|--3--5--5-------5--3--1--|--3--5--1---------------|
----------------0--0----|-------------------------|----------------0--0----|
------------------------|-------------------------|------------------------|
------------------------|-------------------------|------------------------|
------------------------|-------------------------|------------------------|


  Q    Q    E  E  Q       Q    Q    E  E  Q       E  E  E  Q    E  E  E   
-------5----3----------|-------5----3----------|-------------------------|
--5------------3--3----|--5------------3--3----|--3--5--5-------5--3--1--|
-----------------------|-----------------------|-------------------------|
-----------------------|-----------------------|-------------------------|
-----------------------|-----------------------|-------------------------|
-----------------------|-----------------------|-------------------------|


  E  E  E  Q    E  Q       Q    Q    E  E  E  E     Q    Q    E  E  Q     
------------------------|-------5----3-----------|-------5----3----------|
--3--5--1---------------|--5------------3--3--3--|--5------------3--3----|
----------------0--0----|------------------------|-----------------------|
------------------------|------------------------|-----------------------|
------------------------|------------------------|-----------------------|
------------------------|------------------------|-----------------------|


  W                    E  E  E  E  E  E  E  E     W                  
--------------------|--8-----------------------|--------------------|
--L~----------------|--------8-----6-----6--8--|--------------------|
--------------------|-----5-----5-----5--------|--0~----------------|
--------------------|--------------------------|--------------------|
--------------------|--------------------------|--------------------|
--------------------|--------------------------|--------------------|


  E  E  E  E  E  E  E  E     W                  
--8--7--5-----------------|--------------------|
-----------8--6--5-----5--|--------------------|
--------------------7-----|--5~----------------|
--------------------------|--------------------|
--------------------------|--------------------|
--------------------------|--------------------|


   E   E   E   E   E   E   E  E      H.             E  E   
--12--10-------------------------|------------------------|
----------13--12--10-------------|------------------------|
----------------------12--10--9--|--12~----------------5--|
---------------------------------|-----------------/7-----|
---------------------------------|------------------------|
---------------------------------|------------------------|


  Q     E  Q     E  Q         H.             E  E     Q     E  Q     E  Q       
---------------------------|-----------------------|---------------------------|
--------8--------8---------|-----------------------|--------8--------8---------|
--7b-------7b-------7br----|--5~----------------5--|--7b-------7b-------7br----|
---------------------------|----------------/7-----|---------------------------|
---------------------------|-----------------------|---------------------------|
---------------------------|-----------------------|---------------------------|


  W                    E  E  E  Q    E  E  E     E  E  E  Q    E  Q     
--------------------|-------------------------|------------------------|
--------------------|--3--5--5-------5--3--1--|--3--5--1---------------|
--7~----------------|-------------------------|----------------0--0----|
--------------------|-------------------------|------------------------|
--------------------|-------------------------|------------------------|
--------------------|-------------------------|------------------------|


  E  E  E  Q    E  E  E     E  E  E  Q    E  Q       E  E  E  Q    E  E  E   
-------------------------|------------------------|-------------------------|
--3--5--5-------5--3--1--|--3--5--1---------------|--3--5--5-------5--3--1--|
-------------------------|----------------0--0----|-------------------------|
-------------------------|------------------------|-------------------------|
-------------------------|------------------------|-------------------------|
-------------------------|------------------------|-------------------------|


  E  E  E  Q    E  Q       E  E  E  Q    E  E  E     E  E  E  Q    E  Q     
------------------------|-------------------------|------------------------|
--3--5--1---------------|--3--5--5-------5--3--1--|--3--5--1---------------|
----------------0--0----|-------------------------|----------------0--0----|
------------------------|-------------------------|------------------------|
------------------------|-------------------------|------------------------|
------------------------|-------------------------|------------------------|


  Q    Q    E  E  Q       Q    Q    E  E  Q       E  E  E  Q    E  E  E   
-------5----3----------|-------5----3----------|-------------------------|
--5------------3--3----|--5------------3--3----|--3--5--5-------5--3--1--|
-----------------------|-----------------------|-------------------------|
-----------------------|-----------------------|-------------------------|
-----------------------|-----------------------|-------------------------|
-----------------------|-----------------------|-------------------------|


  E  E  E  Q    E  Q       Q    Q    E  E  E  E     Q    Q    E  E  Q     
------------------------|-------5----3-----------|-------5----3----------|
--3--5--1---------------|--5------------3--3--3--|--5------------3--3----|
----------------0--0----|------------------------|-----------------------|
------------------------|------------------------|-----------------------|
------------------------|------------------------|-----------------------|
------------------------|------------------------|-----------------------|


  E  E  E  Q    E  E  E     E  E  E  Q    E  Q       E  E  E  Q    E  E  E   
-------------------------|------------------------|-------------------------|
--3--5--5-------5--3--1--|--3--5--1---------------|--3--5--5-------5--3--1--|
-------------------------|----------------0--0----|-------------------------|
-------------------------|------------------------|-------------------------|
-------------------------|------------------------|-------------------------|
-------------------------|------------------------|-------------------------|


  E  E  E  Q    E  Q       E  E  E  Q    E  E  E     E  E  E  Q    E  Q     
------------------------|-------------------------|------------------------|
--3--5--1---------------|--3--5--5-------5--3--1--|--3--5--1---------------|
----------------0--0----|-------------------------|----------------0--0----|
------------------------|-------------------------|------------------------|
------------------------|-------------------------|------------------------|
------------------------|-------------------------|------------------------|


  E  E  E  Q    E  E  E     E  E  E  Q    E  Q       E  E  E  Q    E  E  E   
-------------------------|------------------------|-------------------------|
--3--5--5-------5--3--1--|--3--5--1---------------|--3--5--5-------5--3--1--|
-------------------------|----------------0--0----|-------------------------|
-------------------------|------------------------|-------------------------|
-------------------------|------------------------|-------------------------|
-------------------------|------------------------|-------------------------|


  W                            Q    Q    E  E  Q       E  E  E  Q    E  E  E   
--------------------|-------|-------5----3----------|-------------------------|
--------------------|-------|--5------------3--3----|--3--5--5-------5--3--1--|
--7b----------------|-------|-----------------------|-------------------------|
--------------------|-------|-----------------------|-------------------------|
--------------------|-------|-----------------------|-------------------------|
--------------------|-------|-----------------------|-------------------------|


  Q    Q    E  E  Q       E  E  E  Q    E  E  E     Q    Q    E  E  Q     
-------5----3----------|-------------------------|-------5----3----------|
--5------------3--3----|--3--5--5-------5--3--1--|--5------------3--3----|
-----------------------|-------------------------|-----------------------|
-----------------------|-------------------------|-----------------------|
-----------------------|-------------------------|-----------------------|
-----------------------|-------------------------|-----------------------|


  E  E  E  Q    E  E  E     Q    Q    E  E  Q       E  E  E  Q    E  E  E   
-------------------------|-------5----3----------|-------------------------|
--3--5--5-------5--3--1--|--5------------3--3----|--3--5--5-------5--3--1--|
-------------------------|-----------------------|-------------------------|
-------------------------|-----------------------|-------------------------|
-------------------------|-----------------------|-------------------------|
-------------------------|-----------------------|-------------------------|


  Q    Q    E  E  Q       E  E  E  Q    E  E  E     Q    Q    E  E  Q     
-------5----3----------|-------------------------|-------5----3----------|
--5------------3--3----|--3--5--5-------5--3--1--|--5------------3--3----|
-----------------------|-------------------------|-----------------------|
-----------------------|-------------------------|-----------------------|
-----------------------|-------------------------|-----------------------|
-----------------------|-------------------------|-----------------------|


  E  E  E  Q    E  E  E     Q    Q    E  E  Q       E  E  E  Q    E  E  E   
-------------------------|-------5----3----------|-------------------------|
--3--5--5-------5--3--1--|--5------------3--3----|--3--5--5-------5--3--1--|
-------------------------|-----------------------|-------------------------|
-------------------------|-----------------------|-------------------------|
-------------------------|-----------------------|-------------------------|
-------------------------|-----------------------|-------------------------|


  Q    Q    E  E  Q       E  E  E  Q    E  E  E                
-------5----3----------|-------------------------|-----|-----||
--5------------3--3----|--3--5--5-------5--3--1--|-----|-----||
-----------------------|-------------------------|-----|-----||
-----------------------|-------------------------|-----|-----||
-----------------------|-------------------------|-----|-----||
-----------------------|-------------------------|-----|-----||




Duration Legend
---------------
W - whole
H - half
Q - quarter
E - 8th
S - 16th
T - 32nd
X - 64th
. - note dotted
|-n-|  - n-tuplets
comments
We did not receive enough feedback on this tab! Please rate:
print report bad tab
1 2 3 4 5
I want to post or [tab]
guest
You may want to rate the tab now too:
select rating
Please do not post tabs as comments. Select "correction" instead!