Oops, an error
Loading. Please wait.

Awake And Alive Bass Tab

ver4
ver4

Whole song

Interactive

More versions @911Tabs.com
1,503 views 18 this week
no commentswrite comment
1 2 3 4 5
excellent!
x 2
Autoscroll
+/-
esc
set tempo
stop
Contributor
WARNING: You are trying to view
                                    content from Ultimate-Guitar.com
                                    in an unauthorized application,
                                    which is prohibited.

                                    Please use an official Ultimate
                                    Guitar Tabs application for iPhone,
                                    iPad or Android to access legitimate
                                    chords, guitar, bass, and drum tabs
                                    from Ultimate-Guitar.com database.

                                    Type "ultimate guitar tabs" in Apple
                                    App Store's or Android Market's
                                    search to find the application.
0:05
G|-------------------------------------------------------------------|
D|o-----------------------------------------------------------------o|
A|----------------------------------------------------------5---5----|
E|o-0-0---0-----0-0---------0-------5-5---5---5-8-8-----------------o|
B|------------3-----------------3------------------------------------|
    1 + 2 + 3 + 4 + 1 + 2 + 3 + 4 + 1 + 2 + 3 + 4 + 1 + 2 + 3 + 4 +

0:18
G|-------------------------------------------------------------------|
D|o-----------------------------------------------------------------o|
A|-------------------------------------------------------------------| x3
E|o-0-0---0-----0---0---------------0-0---0-----0---0---------------o|
B|-------------------------------------------------------------------|
    1 + 2 + 3 + 4 + 1 + 2 + 3 + 4 + 1 + 2 + 3 + 4 + 1 + 2 + 3 + 4 +       

G|-----------------------------------------------------------------|
D|-----------------------------------------------------------------|
A|-------------------------------------------------5---5---5-------|
E|-5-5---5-----5---5---------------3-3---3-----3-------------------|
B|-----------------------------------------------------------------|
   1 + 2 + 3 + 4 + 1 + 2 + 3 + 4 + 1 + 2 + 3 + 4 + 1 + 2 + 3 + 4 +  

0:43
G|-----------------------------------------------------------------|
D|-----------------------------------------------------------------|
A|-------------------------3---------------------------------------|
E|-0-------------------------------3-------------------------------|
B|-------------1-------------------------------3-------------------|
   1 + 2 + 3 + 4 + 1 + 2 + 3 + 4 + 1 + 2 + 3 + 4 + 1 + 2 + 3 + 4 +  

G|-----------------------------------------------------------------|
D|-----------------------------------------------------------------|
A|-----------------------------------------------------------------|
E|-0-------------------------------3-------------------------------|
B|-------------1-------------------------------3-------------------|
   1 + 2 + 3 + 4 + 1 + 2 + 3 + 4 + 1 + 2 + 3 + 4 + 1 + 2 + 3 + 4 +  

0:54
G|-----------------------------------------------------------------|
D|-----------------------------------------------------------------|
A|-----------------------------------------------------------------|
E|-0---0-------0-------------------3---3---3---3-------------------|
B|-----------------1---1-------1-------------------3---3---3---3---|
   1 + 2 + 3 + 4 + 1 + 2 + 3 + 4 + 1 + 2 + 3 + 4 + 1 + 2 + 3 + 4 +  

G|-----------------------------------------------------------------|
D|-----------------------------------------------------------------|
A|-3---3---3---3---3---3---3---3-----------------------------------|
E|---------------------------------5---5---5---5---7---------------|
B|-----------------------------------------------------------------|
   1 + 2 + 3 + 4 + 1 + 2 + 3 + 4 + 1 + 2 + 3 + 4 + 1 + 2 + 3 + 4 +  

1:07
G|-------------------------------------------------------------------|
D|o-----------------------------------------------------------------o|
A|----------------------------------------------------------5---5----|
E|o-0-0---0-----0-0---------0-------5-5---5---5-8-8-----------------o|
B|------------3-----------------3------------------------------------|
    1 + 2 + 3 + 4 + 1 + 2 + 3 + 4 + 1 + 2 + 3 + 4 + 1 + 2 + 3 + 4 +

1:19
G|-------------------------------------------------------------------|
D|o-----------------------------------------------------------------o|
A|-------------------------------------------------------------------| x3
E|o-0-0---0-----0---0---------------0-0---0-----0---0---------------o|
B|-------------------------------------------------------------------|
    1 + 2 + 3 + 4 + 1 + 2 + 3 + 4 + 1 + 2 + 3 + 4 + 1 + 2 + 3 + 4 +       

G|-----------------------------------------------------------------|
D|-----------------------------------------------------------------|
A|-----------------------------------------------------------------|
E|-5-5---5-----5---5---------------3-3---3-----3-------------------|
B|-----------------------------------------------------------------|
   1 + 2 + 3 + 4 + 1 + 2 + 3 + 4 + 1 + 2 + 3 + 4 + 1 + 2 + 3 + 4 +  

1:43
G|-----------------------------------------------------------------|
D|-----------------------------------------------------------------|
A|-------------------------3---------------------------------------|
E|-0-------------------3-----------3-------------------------------|
B|-------------1-------------------------------3-------------------|
   1 + 2 + 3 + 4 + 1 + 2 + 3 + 4 + 1 + 2 + 3 + 4 + 1 + 2 + 3 + 4 +  

G|-----------------------------------------------------------------|
D|-----------------------------------------------------------------|
A|---------------------------------------------------------5-5-5---|
E|-0-------------------------------3-------------------------------|
B|-------------1-------------------------------3-------------------|
   1 + 2 + 3 + 4 + 1 + 2 + 3 + 4 + 1 + 2 + 3 + 4 + 1 + 2 + 3 + 4 +  

1:54
G|-----------------------------------------------------------------|
D|-----------------------------------------------------------------|
A|-----------------------------------------------------------------|
E|-0---0-------0-------------------3---3---3---3-------------------|
B|-----------------1---1-------1-------------------3---3---3---3---|
   1 + 2 + 3 + 4 + 1 + 2 + 3 + 4 + 1 + 2 + 3 + 4 + 1 + 2 + 3 + 4 +  

G|-----------------------------------------------------------------|
D|-----------------------------------------------------------------|
A|-----------------------------------------------------------------|
E|---------------------------------5---5---5---5---7---7---7---7---|
B|-1---1---1---1---1---1---1---1-----------------------------------|

2:06
G|-----------------------------------------------------------------|
D|-----------------------------------------------------------------|
A|-----------------------------------------------------------------|
E|-0---0-------0---0-------3h5-----0---0-------0---0-------3h5-----|
B|-----------------------------3-------------------------------3---|
   1 + 2 + 3 + 4 + 1 + 2 + 3 + 4 + 1 + 2 + 3 + 4 + 1 + 2 + 3 + 4 +  

G|-----------------------------------------------------------------|
D|-----------------------------------------------------------------|
A|-----------------------------------------------------------------|
E|-0---0-------0---0-------3h5-----0---0-------0---0-------2---3---|
B|-----------------------------3-----------------------------------|
   1 + 2 + 3 + 4 + 1 + 2 + 3 + 4 + 1 + 2 + 3 + 4 + 1 + 2 + 3 + 4 +  

2:18
G|-----------------------------------------------------------------|
D|-----------------------------------------------------------------|
A|-----------------------------------------------------------------|
E|-5-----------5-------5-------------------------------------------|
B|-------------------------3---3---5-----------5-----------3-------|
   1 + 2 + 3 + 4 + 1 + 2 + 3 + 4 + 1 + 2 + 3 + 4 + 1 + 2 + 3 + 4 + 

G|-----------------------------------------------------------------|
D|-----------------------------------------------------------------|
A|-----------------------------------------------------------------|
E|-----------------------------------------------------------------|
B|-1---1---1---1---1---1---1---1---3---3---3---3---3---3---3---3---|
   1 + 2 + 3 + 4 + 1 + 2 + 3 + 4 + 1 + 2 + 3 + 4 + 1 + 2 + 3 + 4 + 

2:30
G|-----------------------------------------------------------------|
D|-----------------------------------------------------------------|
A|---------------------------------------------5-5-5-5-5-5-5-5-5-5-|
E|-5-5-5-5-5-5-7-7-7-7-7-7-7-7-7-7-8-8-8-8-8-8---------------------|
B|-----------------------------------------------------------------|
   1 + 2 + 3 + 4 + 1 + 2 + 3 + 4 + 1 + 2 + 3 + 4 + 1 + 2 + 3 + 4 + 

2:37
G|-----------------------------------------------------------------|
D|-----------------------------------------------------------------|
A|-3-----------3---------------------------------------------------|
E|-----------------------------------------------------------------|
B|-------------------------3-------5-----------5-----------3-3-3---|
   1 + 2 + 3 + 4 + 1 + 2 + 3 + 4 + 1 + 2 + 3 + 4 + 1 + 2 + 3 + 4 +  

G|-----------------------------------------------------------------|
D|-----------------------------------------------------------------|
A|-----------------------------------------------------------------|
E|-----------------------------------------------------------------|
B|-1---1---1---1---1---1---1---1---3---3---3---3---4---4---4---4---|
   1 + 2 + 3 + 4 + 1 + 2 + 3 + 4 + 1 + 2 + 3 + 4 + 1 + 2 + 3 + 4 + 

G|---------------------------------|
D|---------------------------------|
A|---------------------------------|
E|-0-0---0---0-0-------------------|
B|---------------------------------|
   1 + 2 + 3 + 4 + 1 + 2 + 3 + 4 +     

2:51
G|-----------------------------------------------------------------|
D|-----------------------------------------------------------------|
A|-----------------------------------------------------------------|
E|-0-------------------------------3-------------------------------|
B|-------------1-------------------------------3-------------------|
   1 + 2 + 3 + 4 + 1 + 2 + 3 + 4 + 1 + 2 + 3 + 4 + 1 + 2 + 3 + 4 +  

G|-----------------------------------------------------------------|
D|-----------------------------------------------------------------|
A|-----------------------------------------------------------------|
E|-0-------------------------------3-------------------------------|
B|-------------1-------------------------------3-------------------|
   1 + 2 + 3 + 4 + 1 + 2 + 3 + 4 + 1 + 2 + 3 + 4 + 1 + 2 + 3 + 4 +  

3:04
G|-----------------------------------------------------------------|
D|-----------------------------------------------------------------|
A|-----------------------------------------------------------------|
E|-0---0---0---0-------------------3---3---3---3-------------------|
B|-----------------1---1---1---1-------------------3---3---3---3---|
   1 + 2 + 3 + 4 + 1 + 2 + 3 + 4 + 1 + 2 + 3 + 4 + 1 + 2 + 3 + 4 +  

G|-----------------------------------------------------------------|
D|-----------------------------------------------------------------|
A|-3---3---3---3---3---3---3---3-----------------------------------|
E|---------------------------------5---5---5---5---7---7---7-------|
B|-----------------------------------------------------------------|
   1 + 2 + 3 + 4 + 1 + 2 + 3 + 4 + 1 + 2 + 3 + 4 + 1 + 2 + 3 + 4 +  

G|-----------------------------------------------------------------|
D|-----------------------------------------------------------------|
A|-----------------------------------------------------------------|
E|-0---0-------0---0-------3h5-----0---0-------0---0-------3h5-----|
B|-----------------------------3-------------------------------3---|
   1 + 2 + 3 + 4 + 1 + 2 + 3 + 4 + 1 + 2 + 3 + 4 + 1 + 2 + 3 + 4 +  

G|-----------------------------------------------------------------|
D|-----------------------------------------------------------------|
A|-----------------------------------------------------------------|
E|-0---0-------0---0-------3h5-----0---0-------0---0---------------|
B|-----------------------------3-----------------------------------|
   1 + 2 + 3 + 4 + 1 + 2 + 3 + 4 + 1 + 2 + 3 + 4 + 1 + 2 + 3 + 4 + 
Tabbed by Dave Vucko
comments
We did not receive enough feedback on this tab! Please rate:
print report bad tab
1 2 3 4 5
I want to post or [tab]
guest
You may want to rate the tab now too:
select rating
Please do not post tabs as comments. Select "correction" instead!