Oops, an error
Loading. Please wait.

Comatose Bass Tab

ver1
ver1

Album

Whole song

Interactive

More versions @911Tabs.com
12,712 views 9 this week
2 commentsread comments
1 2 3 4 5
excellent!
x 6
Autoscroll
+/-
esc
set tempo
stop
Contributor
Hey! There's an official Ultimate Guitar app which is ideal
for learning songs when you're away from computer. Get the app
WARNING: You are trying to view
                                    content from Ultimate-Guitar.com
                                    in an unauthorized application,
                                    which is prohibited.

                                    Please use an official Ultimate
                                    Guitar Tabs application for iPhone,
                                    iPad or Android to access legitimate
                                    chords, guitar, bass, and drum tabs
                                    from Ultimate-Guitar.com database.

                                    Type "ultimate guitar tabs" in Apple
                                    App Store's or Android Market's
                                    search to find the application.
Comatose Album Tab

Artist: Skillet

All songs played on a 5-string.

----------------------------------------------------------------------------

Song one: Rebirthing

Intro
G|--------------------------------------|
D|--------------------------------------|X2
A|--------------------------------------|
E|--------------------------------------|X2
B|-3333--3333---3---3333--3333---3-33---|

Verse
G|-----------------------------------|
D|-----------------------------------|X4
A|--------------5--------------------|
E|-----------------------------------|X4
B|-3333--3333---3---3333--3333-------|

Pre-Chorus
G|-----------------------------------|
D|-----------------------------------|
A|-----------------------------------|
E|-3333333333333333-5555555555555555-|
B|-----------------------------------|

G|--------------------------------------------|
D|--------------------------------------------|
A|--------------------------------------------|
E|-6666666666666666-8888888888888888—3~-5~-6~-|
B|--------------------------------------------|

Chorus
G|--------------------------------------------------------|
D|--------------------------------------------------------|X2
A|--------------------------------------------------------|
E|–---3-1~-6~-8~-6~----8~-6~------------------------------|X2
B|-3~---------------3~------------------------------------|

Post-Chorus
G|-------------|
D|-------------|
A|-------------|
E|-5555--6666--|
B|-------------|

Intro
G|--------------------------------------|
D|--------------------------------------|X2
A|--------------------------------------|
E|--------------------------------------|X2
B|-3333--3333---3---3333--3333---3-33---|

Verse
G|-----------------------------------|
D|-----------------------------------|X4
A|--------------5--------------------|
E|-----------------------------------|X4
B|-3333--3333---3---3333--3333-------|

Pre-Chorus
G|-----------------------------------|
D|-----------------------------------|
A|-----------------------------------|
E|-3333333333333333-5555555555555555-|
B|-----------------------------------|

G|--------------------------------------------|
D|--------------------------------------------|
A|--------------------------------------------|
E|-6666666666666666-8888888888888888—3~-5~-6~-|
B|--------------------------------------------|

Chorus
G|--------------------------------------------------------|
D|--------------------------------------------------------|X2
A|--------------------------------------------------------|
E|–---3-1~-6~-8~-6~----8~-6~------------------------------|X2
B|-3~---------------3~------------------------------------|

Post-Chorus
G|-------------|
D|-------------|
A|-------------|
E|-5555--6666--|
B|-------------|

Bridge
G|-------------------|
D|-------------------|X2
A|-------------------|
E|-------------------|X2
B|-3~-33-3x--3~-33---|

During Solo and 2nd Bridge
G|--------------|
D|--------------|X4
A|--------------|
E|–6~-----8~-6~-|X4
B|----3~--------|

Bridge 3
G|------------------------------------------------------|
D|------------------------------------------------------|
A|------------------------------------------------------|
E|-5--6--7--6--5---5--6--7--6--5----3-3--5-5--6-6--8-8--|
B|------------------------------------------------------|

Chorus
G|--------------------------------------------------------|
D|--------------------------------------------------------|X2
A|--------------------------------------------------------|
E|–---3-1~-6~-8~-6~----8~-6~------------------------------|X2
B|-3~---------------3~------------------------------------|

Post-Chorus
G|-------------|
D|-------------|
A|-------------|
E|-5555--6666--|
B|-------------|

Intro
G|--------------------------------------|
D|--------------------------------------|X2
A|--------------------------------------|
E|--------------------------------------|X2
B|-3333--3333---3---3333--3333---3-33---|


----------------------------------------------------------------------------

Song Two: The Last Night

Intro is Piano

Then Bass, guitar, and drums
G|------------------------------------------|
D|------------------------------------------|
A|------------------------------------------|
E|------------------------------------------|
B|0-0-0--0-0-0--0-0-0--8-8-8--8-8-7-x-x-x-x-|

Short Pause

Verse
G|---------------------------------------------------------------|
D|---------------------------------------------------------------|
A|---------------------------------------------------------------|
E|---------------------------------------------------------------|
B|-7-7--7-7-(5-5-4-4-3-3-2-2-1-1)-7-7--7-7-(5-5-4-4-3-3-2-2-1-1)-|
             
G|----------------------------------------|
D|----------------------------------------|
A|----------------------------------------|
E|---------------------------------7-7--5-|
B|-3-3-3-3-3-3-3-3-3-3-3-3-3-3-3-3--------|

Chorus
G|----------------------------------------------------------|
D|----------------------------------------------------------|
A|----------------------------------------------------------|
E|-------------------------5-5-5-5--------------------------|
B|-8-8-8-8-0-0-0-0-3-3-3-3---------8-8-8-8-0-0-0-0-10-10--8-|

G|
D|----------------------------------------------------------|
A|----------------------------------------------------------|
E|-------------------------5-5-5-5--------------------------|
B|-8-8-8-8-0-0-0-0-3-3-3-3---------8-8-8-8-0-0-0-0-10-10--8-|

Intro
G|------------------------------------------|
D|------------------------------------------|
A|------------------------------------------|
E|------------------------------------------|
B|0-0-0--0-0-0--0-0-0--8-8-8--8-8-7-x-x-x-x-|


Short Pause

Verse
G|---------------------------------------------------------------|
D|---------------------------------------------------------------|
A|---------------------------------------------------------------|
E|---------------------------------------------------------------|
B|-7-7--7-7-(5-5-4-4-3-3-2-2-1-1)-7-7--7-7-(5-5-4-4-3-3-2-2-1-1)-|
             
G|----------------------------------------|
D|----------------------------------------|
A|----------------------------------------|
E|---------------------------------7-7--5-|
B|-3-3-3-3-3-3-3-3-3-3-3-3-3-3-3-3--------|

Chorus
G|----------------------------------------------------------|
D|----------------------------------------------------------|
A|----------------------------------------------------------|
E|-------------------------5-5-5-5--------------------------|
B|-8-8-8-8-0-0-0-0-3-3-3-3---------8-8-8-8-0-0-0-0-10-10--8-|

G|
D|----------------------------------------------------------|
A|----------------------------------------------------------|
E|-------------------------5-5-5-5--------------------------|
B|-8-8-8-8-0-0-0-0-3-3-3-3---------8-8-8-8-0-0-0-0-10-10--8-|

Riff One
G|----------------------------------------------------|
D|----------------------------------------------------|
A|----------------------------------------------------|
E|---------------------7---5-----------------7---5----|
B|-5----8----0----5-----------8----0----5-------------|

Riff Two
G|
D|-------------------------------------------------------------------|
A|-------------------------------------------------------------------|
E|-------------------------------------------------------------------|
B|-5-5-5--5-5-5--5-5-5---5-5-5--5-5-5--5-5-5---5-5-5--5-5-5--5-5-5---|

G|
D|-------------------------|
A|-------------------------|
E|-------------------------|
B|-5-5-5-5--5-5-5-5--5-5---|
                              
Chorus
G|----------------------------------------------------------|
D|----------------------------------------------------------|
A|----------------------------------------------------------|
E|-------------------------5-5-5-5--------------------------|
B|-8-8-8-8-0-0-0-0-3-3-3-3---------8-8-8-8-0-0-0-0-10-10--8-|

G|----------------------------------------------------------|
D|----------------------------------------------------------|
A|----------------------------------------------------------|
E|-------------------------5-5-5-5--------------------------|
B|-8-8-8-8-0-0-0-0-3-3-3-3---------8-8-8-8-0-0-0-0-10-10--8-|

G|----------------------------------------------------------|
D|----------------------------------------------------------|
A|----------------------------------------------------------|
E|-------------------------5-5-5-5--------------------------|
B|-8-8-8-8-0-0-0-0-3-3-3-3---------8-8-8-8-0-0-0-0-10-10--8-|

Outro Riff
G|-------------|
D|-------------|
A|-------------|
E|-------------|
B|-5-----8-----|

Piano ends song

----------------------------------------------------------------------------

Song Three: Yours to Hold

Verse (Bass Actually starts at chorus but it’s nice to play the first verse 

with the bass too)
G|--2--------------------|----------------------|2--------------------------
D|-----------------------|---------------2------|---------------------------
A|-----------------------|----------------------|---------------------------
E|----------------------3|0------------------3--|------------------------3--
B|-----------------------|----------------------|---------------------------
  I see you standing here But you’re so far away Starving for your attention

|-----------------------3---|----------------------------|
|---------------2-----------|------------------------2---|
|---------------------------|----------------------------|
|0--------------------------|0---------------------------|
|---------------------------|----------------------------|
 You don’t even know my name You’re going through so much

|----------------------------------------------|
|----------------------------------------------|
|----------------------------------------------|
|----------------2--------------3--------------|
|----------------------------------------------|
 But I know that I could be the one to hold you

Chorus
|2---------------|---------------------|----------------------|
|----------------|---------------------|------------2---------|
|----------------|---------------------|----------------------|
|----------------|3--------------------|0--------------------3|
|----------------|---------------------|----------------------|
 Every single day I find it hard to say I could be yours alone

|2-------------------|----------------------|-------------------|
|--------------------|----------------------|-------2-----------|
|--------------------|----------------------|-------------------|
|--------------------|3---------------------|0-----------------3|
|--------------------|----------------------|-------------------|
 You will see someday That all along the way I was yours to hold

|------------------2|
|-------------------|
|-------------------|
|-------------------|
|-------------------|
 I was yours to hold

Verse
|2-------------------|---------------------------------|
|--------------------|------------------2--------------|
|--------------------|---------------------------------|
|-------------------3|0------------------------------3-|
|--------------------|---------------------------------|
 I see you walking by Your hair always hiding your face

|2-------------------------------|----------------------------|
|--------------------------------|------------------2---------|
|--------------------------------|----------------------------|
|---------------------------3----|0--------------------------3|
|--------------------------------|----------------------------|
 I wonder why you’ve been hurting I wish I had some way to say

|----------------------------|
|-------------------------2--|
|----------------------------|
|0---------------------------|
|----------------------------|
 You’re going through so much

|-------------------------------------------------|
|-------------------------------------------------|
|-------------------------------------------------|
|--------------------2-------------3--------------|
|-------------------------------------------------|
 Don’t you know that I will be the one to hold you

Chorus
|2---------------|---------------------|----------------------|
|----------------|---------------------|------------2---------|
|----------------|---------------------|----------------------|
|----------------|3--------------------|0--------------------3|
|----------------|---------------------|----------------------|
 Every single day I find it hard to say I could be yours alone

|2-------------------|----------------------|-------------------|
|--------------------|----------------------|-------2-----------|
|--------------------|----------------------|-------------------|
|--------------------|3---------------------|0-----------------3|
|--------------------|----------------------|-------------------|
 You will see someday That all along the way I was yours to hold

|------------------2|
|-------------------|
|-------------------|
|-------------------|
|-------------------|
 I was yours to hold

Bridge
|-------------------------------------------|---------------|
|---------------------------------------2---|---------------|
|-------------------------------------------|---------------|
|3-------------------------0----------------|--------------3|
|-------------------------------------------|---------------|
 I’m stretching but you’re just out of reach You should know

|----------------------------------|----------------------------------|
|---------------------------------2|----------------------------------|
|----------------------------------|----------------------------------|
|----------------------0-----------|2-----------------------3---------|
|----------------------------------|----------------------------------|
 I’m ready when you’re ready for me And I’m waiting for the right time

|----------------------------|---------------|----------------------|
|--------2-------------------|---------------|---------2------------|
|----------------------------|---------------|----------------------|
|-------------------------3--|2----------3---|------------------3---|
|----------------------------|---------------|----------------------|
 For the day I catch your eye To let you know That I’m yours to hold

Chorus x2
|2---------------|---------------------|----------------------|
|----------------|---------------------|------------2---------|
|----------------|---------------------|----------------------|
|----------------|3--------------------|0--------------------3|
|----------------|---------------------|----------------------|
 Every single day I find it hard to say I could be yours alone

|2-------------------|----------------------|-------------------|
|--------------------|----------------------|-------2-----------|
|--------------------|----------------------|-------------------|
|--------------------|3---------------------|0-----------------3|
|--------------------|----------------------|-------------------|
 You will see someday That all along the way I was yours to hold

|------------------2|
|-------------------|
|-------------------|
|-------------------|
|-------------------|
 I was yours to hold

----------------------------------------------------------------------------

Song Four: Better Than Drugs

Part one of the intro is only guitar, then bass comes in with
G|------------------------------------------------------------|
D|------------------------------------------------------------|X2
A|------------------------------------------------------------|
E|------------------------------------------------------------|X2
B|-3-0-0-3-0-0-2-0-0-5-0-0-8-0-7--3-0-0-3-0-0-2-0-0-5-0-0-3-0-|

Verse
|-------------------------------------|
|-------------------------------------|
|-7~~/2~~~5~~~7~~~0h5h7p5p0h5h7p5p0h5-|
|-------------------------------------|
|-------------------------------------|

|---------------------------------|
|---------------------------------|
|---------------------------------|
|---------------------------------|
|-8-8-8-8-8-8-8-8-8-8-8-8-8-8-8-8-|

|-------------------------------------------------|
|-------------------------------------------------|
|-------------------------------------------------|
|-------------------------------------------------|
|-10-10-10-10-10-10-10-10-10-10-10-10-10-10-10-10-|

|-------------------------------------------------|
|-------------------------------------------------|X2
|-------------------------------------------------|
|-------------------------------------------------|X2
|-12-12-12-12-12-12-12-12-12-12-12-12-12-12-12-12-|

|-------------------|
|-------------------|
|-------------------|
|-------------------|
|-5-5-5--5-5-5--5-5-|

Chorus
|---------------------------------------------|
|---------------------------------------------|X2
|---------------------------------------------|
|---------------------------------------------|X2
|-8-8-x-8~~~0-0-x-0~~~3-3-x-3-x-x-x-x-3-3-x-3-|

Post-Chorus
|------------------------------------------------------------|
|------------------------------------------------------------|X2
|------------------------------------------------------------|
|------------------------------------------------------------|X2
|-3-0-0-3-0-0-2-0-0-5-0-0-8-0-7--3-0-0-3-0-0-2-0-0-5-0-0-3-0-|

Verse
|-------------------------------------|
|-------------------------------------|
|-7~~/2~~~5~~~7~~~0h5h7p5p0h5h7p5p0h5-|
|-------------------------------------|
|-------------------------------------|

|---------------------------------|
|---------------------------------|
|---------------------------------|
|---------------------------------|
|-8-8-8-8-8-8-8-8-8-8-8-8-8-8-8-8-|

|-------------------------------------------------|
|-------------------------------------------------|
|-------------------------------------------------|
|-------------------------------------------------|
|-10-10-10-10-10-10-10-10-10-10-10-10-10-10-10-10-|

|-------------------------------------------------|
|-------------------------------------------------|X2
|-------------------------------------------------|
|-------------------------------------------------|X2
|-12-12-12-12-12-12-12-12-12-12-12-12-12-12-12-12-|

|-------------------|
|-------------------|
|-------------------|
|-------------------|
|-5-5-5--5-5-5--5-5-|


Bridge
|------------------------------------------|
|------------------------------------------|
|------------------------------------------|
|------------------------------------------|
|-8-8-x-8--10-10-x-10--0-2-8/7-0-0-2-8/7—0-|

|-------------------------------|
|-------------------------------|
|-------------------------------|
|-------------------------------|
|-8-8-x-8—10-10-x-10—0-2-8/7--0-|

Chorus
|---------------------------------------------|
|---------------------------------------------|X4
|---------------------------------------------|
|---------------------------------------------|X4
|-8-8-x-8~~~0-0-x-0~~~3-3-x-3-x-x-x-x-3-3-x-3-|


Outro
|------------------------------------------------------------|
|------------------------------------------------------------|
|------------------------------------------------------------|X2
|------------------------------------------------------------|X2
|-3-0-0-3-0-0-2-0-0-5-0-0-8-0-7--3-0-0-3-0-0-2-0-0-5-0-0-3-0-|

|-------|
|-------|
|-------|
|-------|
|-0-0-0-|

----------------------------------------------------------------------------

Song Five: Comatose

Intro
G|-----------------------------------------------------------------------|
D|-----------------------------------------------------------------------|
A|-----------------------------------------------------------------------|
E|-----------------------------------------------------------------------|
B|-5-5--1-1--0--3--55-55--11-11--0—3/4-0~~~------------------------------|

Verse
Short pause
then
|----------------------------------------------------|
|----------------------------------------------------|
|----------------------------------------------------|
|----------------------------------------------------|
|-55-55-55-55--11-11-11-11--33-33-33-33--77-77-99-99-|

Pre-Chorus
|---------------------------------------------------------------|
|---------------------------------------------------------------|
|---------------------------------------------------------------|
|---------------------------------------------------------------|
|-333-33-5-55-55-777-77-9-99-99--333-33-5-55-55-777-77-777/9999-|

Chorus
|-------------------------------------------|   |---------|
|-------------------------------------------|X2 |---------|
|-------------------------------------------|   |---------|
|-------------------------------------------|X2 |---------|
|-5-5--1-1--0--3--55-55--11-11--0--3-4-0~~~-|   |-0--0000-|

Verse 
Short pause
then
|----------------------------------------------------|
|----------------------------------------------------|
|----------------------------------------------------|
|----------------------------------------------------|
|-55-55-55-55--11-11-11-11--33-33-33-33--77-77-99-99-|

Pre-Chorus

|---------------------------------------------------------------------|
|---------------------------------------------------------------------|
|---------------------------------------------------------------------|
|-3-3-3-3-xxxxxxxx-5-5-5-5-xxxxxxxx-7-7-7-7-xxxxxxxx-9-9-9-9-xxxxxxxx-|

|---------------------------------------------------------------|
|---------------------------------------------------------------|
|---------------------------------------------------------------|
|-333-33-5-55-55-777-77-9-99-99--333-33-5-55-55-777-77-777/9999-|

Chorus X2
|-------------------------------------------|   |---------|
|-------------------------------------------|X2 |---------|
|-------------------------------------------|   |---------|(play again)
|-------------------------------------------|X2 |---------|
|-5-5--1-1--0--3--55-55--11-11--0--3-4-0~~~-|   |-0--0000-|

|------------|
|------------|
|------------|
|------------|
|-9--7--5--3-|

Short Pause

Chorus X2
|-------------------------------------------|   |---------|
|-------------------------------------------|X2 |---------|
|-------------------------------------------|   |---------|(play again)
|-------------------------------------------|X2 |---------|
|-5-5--1-1--0--3--55-55--11-11--0--3-4-0~~~-|   |-0--0000-|

----------------------------------------------------------------------------

Song Six: The Older I Get

Verse
G|-----------------------------------|
D|-----------------------------------|X4
A|------3--3333333-------------------|
E|-5555------------3333--1-1111--333-|X4
B|-----------------------------------|

Pre-chorus
G|---------------------------------------------------------------------|
D|---------------------------------------------------------------------|
A|-55555555--77777777--88888888--88888888--55555555-77777777--88888888-|
E|---------------------------------------------------------------------|
B|---------------------------------------------------------------------|

Chorus
G|------------------------------------------------------------|
D|------------------------------------------------------------|
A|-----------------------------------------55555555--77777777-|
E|-88888888--88888888--33333333--33333333---------------------|
B|------------------------------------------------------------|

G|------------------------------------------------------------|
D|------------------------------------------------------------|
A|-88888888--88888888-----------------------------------------|
E|---------------------88888888--88888888--33333333--33333333-|
B|------------------------------------------------------------|

G|----------------------------------|
D|----------------------------------|
A|-55555555--77777777--77777777--77-|
E|----------------------------------|
B|----------------------------------|

Verse
G|-----------------------------------|
D|-----------------------------------|X5
A|------3--3333333-------------------|
E|-5555------------3333--1-1111--333-|X5
B|-----------------------------------|

Pre-chorus
G|---------------------------------------------------------------------|
D|---------------------------------------------------------------------|
A|-55555555--77777777--88888888--88888888--55555555-77777777--88888888-|
E|---------------------------------------------------------------------|
B|---------------------------------------------------------------------|

Chorus
G|------------------------------------------------------------|
D|------------------------------------------------------------|
A|-----------------------------------------55555555--77777777-|
E|-88888888--88888888--33333333--33333333---------------------|
B|------------------------------------------------------------|

G|------------------------------------------------------------|
D|------------------------------------------------------------|
A|-88888888--88888888-----------------------------------------|
E|---------------------88888888--88888888--33333333--33333333-|
B|------------------------------------------------------------|

G|----------------------------------|
D|----------------------------------|
A|-55555555--77777777--77777777--77-|
E|----------------------------------|
B|----------------------------------|

Bridge
G|------------------------------------------------------------|
D|------------------------------------------------------------|
A|--------------------33333333--33333333--55555555--55555555--|
E|55555555--55555555------------------------------------------|
B|------------------------------------------------------------|

G|------------------------------------------------------------|
D|------------------------------------------------------------|
A|----------------------------------------33333333--33333333--|
E|11111111--33333333--55555555--55555555----------------------|
B|------------------------------------------------------------|

G|------------------------------|
D|------------------------------|
A|55555555--55555555--88888888--|
E|------------------------------|
B|------------------------------|

Chorus X2
G|------------------------------------------------------------|
D|------------------------------------------------------------|
A|-----------------------------------------55555555--77777777-|
E|-88888888--88888888--33333333--33333333---------------------|
B|------------------------------------------------------------|

G|------------------------------------------------------------|
D|------------------------------------------------------------|
A|-88888888--88888888-----------------------------------------|
E|---------------------88888888--88888888--33333333--33333333-|
B|------------------------------------------------------------|

G|----------------------------------|
D|----------------------------------|
A|-55555555--77777777--77777777--77-|
E|----------------------------------|
B|----------------------------------|

Outro
G|---------|
D|---------|
A|---------|
E|-5--7--8-|
B|---------|

----------------------------------------------------------------------------

Song Seven: Those Nights

Intro
G|------------------------|
D|------------------------|X2
A|--3-3-------------------|
E|----------3-3-----0-0-1-|X2
B|------------------------|

Verse
G|---------------------------------------------------------------|
D|---------------------------------------------------------------|
A|---------------------------------3-3-3-3-3-3-3-----------------|
E|---5-5-5-5-5-5-5-1-1-1-1-1-1-1-1---------------3-3-3-3-3-1-1-1-|
B|-3-------------------------------------------------------------|

G|-------------------------------------------------------------|
D|-------------------------------------------------------------|
A|-------------------------------3-3-3-3-3-3-3-----------------|
E|-5-5-5-5-5-5-5-1-1-1-1-1-1-1-1---------------3-3-3-3-3-1-1-1-|
B|-------------------------------------------------------------|

G|---------------------------------------------------|
D|---------------------------------------------------|
A|---------------------------------------------------|
E|---------------------------------------------------|
B|-3-3-3-3-3-3-3-3-3-3-3-3-3-3-3-3-6-6-6-6-6-6-6-6-6-|

Chorus
G|--------------------------------------------------------|
D|--------------------------------------------------------|X2
A|-3-3-3-3------------------------------------------------|
E|---------3-3-3-3-1-1-1-1-1-1-1-1-5-5-5-5-0-0-0-0-1-1--11|X2
B|--------------------------------------------------------|

Intro
G|------------------------|
D|------------------------|
A|--3-3-------------------|
E|----------3-3-----0-0-1-|
B|------------------------|

Verse
G|---------------------------------------------------------------|
D|---------------------------------------------------------------|
A|---------------------------------3-3-3-3-3-3-3-----------------|
E|---5-5-5-5-5-5-5-1-1-1-1-1-1-1-1---------------3-3-3-3-3-1-1-1-|
B|-3-------------------------------------------------------------|

G|-------------------------------------------------------------|
D|-------------------------------------------------------------|
A|-------------------------------3-3-3-3-3-3-3-----------------|
E|-5-5-5-5-5-5-5-1-1-1-1-1-1-1-1---------------3-3-3-3-3-1-1-1-|
B|-------------------------------------------------------------|

G|---------------------------------------------------|
D|---------------------------------------------------|
A|---------------------------------------------------|
E|---------------------------------------------------|
B|-3-3-3-3-3-3-3-3-3-3-3-3-3-3-3-3-6-6-6-6-6-6-6-6-6-|

Chorus
G|--------------------------------------------------------|
D|--------------------------------------------------------|X2
A|-3-3-3-3------------------------------------------------|
E|---------3-3-3-3-1-1-1-1-1-1-1-1-5-5-5-5-0-0-0-0-1-1--11|X2
B|--------------------------------------------------------|

Intro
G|------------------------|
D|------------------------|X4
A|--3-3-------------------|
E|----------3-3-----0-0-1-|X4
B|------------------------|

Short Pause

Intro
G|------------------------|
D|------------------------|
A|--3-3-------------------|
E|----------3-3-----0-0-1-|
B|------------------------|

Chorus
G|--------------------------------------------------------|
D|--------------------------------------------------------|X5
A|-3-3-3-3------------------------------------------------|
E|---------3-3-3-3-1-1-1-1-1-1-1-1-5-5-5-5-0-0-0-0-1-1--11|X5
B|--------------------------------------------------------|

Ending
G|------|
D|------|
A|------|
E|-1~~~~|
B|------|

----------------------------------------------------------------------------

Song Eight: Falling Inside The Black

Intro
Guitar First then Bass
G|------------------------------------|
D|------------------------------------|
A|------------------------------------|
E|-0-0-0/1--0-0-0/1--0-0-0/1--1-1-1/0-|
B|------------------------------------|

Pause

Verse
|---------------------------------------------|
|---------------------------------------------|
|---------------------------------------------|
|-0--0-0-1-00-0----0-00-0----0-00-0----0-00-0-|
|---------------------------------------------|

|------------------------------------------------------------------|
|------------------------------------------------------------------|
|------------------------------------------------------------------|
|-3-33-3-33-33-5-55--55-33-3--3-33-3-33-33-2-22-2-222-3-33-3-333/7-|
|------------------------------------------------------------------|

Chorus
|---------------------------------------------|
|---------------------------------------------|
|---------------------------------------------|X2
|-3-33-31-11-10-00-0--------3-33-31-11-11-0/3-|
|-------------------3-33-3--------------------|

|-----|
|-----|
|-----|
|-1~--|
|---3-|

Verse
|---------------------------------------------|
|---------------------------------------------|
|---------------------------------------------|X2
|-0--0-0-1-00-0----0-00-0----0-00-0----0-00-0-|
|---------------------------------------------|

|------------------------------------------------------------------|
|------------------------------------------------------------------|
|------------------------------------------------------------------|
|-3-33-3-33-33-5-55--55-33-3--3-33-3-33-33-2-22-2-222-3-33-3-333/7-|
|------------------------------------------------------------------|

Chorus
|---------------------------------------------|
|---------------------------------------------|
|---------------------------------------------|X2
|-3-33-31-11-10-00-0--------3-33-31-11-11-0/3-|
|-------------------3-33-3--------------------|

|----------|
|----------|
|----------|
|-1~-------|
|---3-33-3-|

Bridge
|----------------------------|
|----------------------------|
|----------------------------|
|-0-0/1--0-0/1--0-0/1--0-0/1-|
|----------------------------|

|--------------------------------------|
|--------------------------------------|
|-9-8-----9-8-----8-8-8-9-9-9-9-9-9--9~|
|-----6-4-----6-4----------------------|
|--------------------------------------|

Chorus
|---------------------------------------------|
|---------------------------------------------|
|---------------------------------------------|X3
|-3-33-31-11-10-00-0--------3-33-31-11-11-0/3-|
|-------------------3-33-3--------------------|

----------------------------------------------------------------------------

Song Nine: Say Goodbye

Piano Intro

Piano and Guitar play Verse one

Bass starts at Pre-Chorus with
G|-----------|
D|-----------|
A|-----------|
E|-1-1-1-1-1-|
B|-----------|

Chorus
|-------------------|----------------------------------------------|
|-------------------|----------------------------------------------|
|-------------------|----------------------------------------------|
|-------------0----3|------1---------------------------------0----3|
|-------------------|----------------------------------------------|
  Don't say goodbye   Cause I don't wanna hear those words tonight

|--------------------------------------------|----------------------|
|------------------------------------------2-|----------------------|
|--------------------------------------------|----------------------|
|------1-------------------------------------|-------3--------------|
|--------------------------------------------|----------------------|
 Cause maybe it's not the end for you and I   And although we knew

|-------------------------------------|2---------------------------|
|-------------------------------------|----------------------------|
|-------------------------------------|----------------------------|
|------1------------------------------|---------------------------1|
|-------------------------------------|----------------------------|
 This time would come for me and you   Don't say anything tonight

|-----------------------------|
|-----------------------------|
|-----------------------------|
|-----------------------------|
|-----------------------------|
 If you're gonna say goodbye

Riff 1
|-----------2---------|
|----------------2----|
|---------------------|
|-0----3------------3-|
|---------------------|

Verse 2
|-----------------|-------------|--------------------------------|
|--------2--------|-------------|--------------------------------|
|-----------------|-------------|--------------------------------|
|0----------------|-----3-------|-----1----------------------0---|
|-----------------|-------------|--------------------------------|
 Do you remember   In December   How we swore we'd never change

|----------------------------|-------------------|-------------------------|
|--------------------2-------|-------------------|------------------------2|
|----------------------------|-------------------|-------------------------|
|----------------------------|----------3--------|--------1----------------|
|----------------------------|-------------------|-------------------------|
 Even though you're leaving   That our feelings   Would always stay the same

|-----------------------------|--------------------------------|
|-----------------------------|--------------------------------|
|-----------------------------|--------------------------------|
|------------3-------------1--|--------------0-----------------|
|-----------------------------|--------------------------------|
 I wish we could be laughing   Instead I'm standing here asking

|2---------------------------|-----------------------------|
|----------------------------|-----------------------------|
|----------------------------|-----------------------------|
|----------------------------|1----------------------------|
|----------------------------|-----------------------------|
 Do we have to end this now   Can we make it last somehow

|2---------------------------------------------|
|----------------------------------------------|
|----------------------------------------------|
|----------------------------------------------|
|----------------------------------------------|
 We both know what we've gotta say, not today

|------------------------------------|
|------------------------------------|
|------------------------------------|
|1-----------------------------------|
|------------------------------------|
 Cause I don't wanna leave this way

G|-----------|
D|-----------|
A|-----------|
E|-1-1-1-1-1-|
B|-----------|

Chorus
|-------------------|----------------------------------------------|
|-------------------|----------------------------------------------|
|-------------------|----------------------------------------------|
|-------------0----3|------1---------------------------------0----3|
|-------------------|----------------------------------------------|
  Don't say goodbye   Cause I don't wanna hear those words tonight

|--------------------------------------------|----------------------|
|------------------------------------------2-|----------------------|
|--------------------------------------------|----------------------|
|------1-------------------------------------|-------3--------------|
|--------------------------------------------|----------------------|
 Cause maybe it's not the end for you and I   And although we knew

|-------------------------------------|2---------------------------|
|-------------------------------------|----------------------------|
|-------------------------------------|----------------------------|
|------1------------------------------|---------------------------1|
|-------------------------------------|----------------------------|
 This time would come for me and you   Don't say anything tonight

|-----------------------------|
|-----------------------------|
|-----------------------------|
|-----------------------------|
|-----------------------------|
 If you're gonna say goodbye

Bridge
|---------------------|----------------------------------------|
|-2-------------------|-2--------------------------------------|
|---------------------|----------------------------------------|
|---0-0---------------|---0-0----------------------------------|
|---------------------|----------------------------------------|
      And if it's over      It hurts but I'm giving you my word

|------------------------------|
|-2----------------------------|
|------------------------------|
|---0-0------------------------|
|------------------------------|
      I hope that you're always

|2-----------------|2-----------------|
|-----------2------|-----------2------|
|------------------|------------------|
|------------------|------------------|
|------------------|------------------|
 Happy like we were Happy like we were

Riff Two
|---------------|
|-------2-------|
|---------------|
|-1--3-----0--0-|
|---------------|

Chorus
|-------------------|----------------------------------------------|
|-------------------|----------------------------------------------|
|-------------------|----------------------------------------------|
|-------------0----3|------1---------------------------------0----3|
|-------------------|----------------------------------------------|
  Don't say goodbye   Cause I don't wanna hear those words tonight

|--------------------------------------------|----------------------|
|------------------------------------------2-|----------------------|
|--------------------------------------------|----------------------|
|------1-------------------------------------|-------3--------------|
|--------------------------------------------|----------------------|
 Cause maybe it's not the end for you and I   And although we knew

|-------------------------------------|2---------------------------|
|-------------------------------------|----------------------------|
|-------------------------------------|----------------------------|
|------1------------------------------|---------------------------1|
|-------------------------------------|----------------------------|
 This time would come for me and you   Don't say anything tonight

|-----------------------------|
|-----------------------------|
|-----------------------------|
|-----------------------------|
|-----------------------------|
 If you're gonna say goodbye

Outro
|------------------------------------------------------2-|
|------2-------------------------------------------------|
|--------------------------------------------------------|
|-----------------------3--------------------------------|
|--------------------------------------------------------|
 Yesterday we were laughing (if you're gonna say goodbye)


|--------------------------------------------------------|
|------------2-------------------------------------------|
|--------------------------------------------------------|
|---------------------------3--------------------------0-|
|--------------------------------------------------------|
 Today I'm left here asking (if you're gonna say goodbye)

|----------------------------------------------2---------|
|-----2--------------------------------------------------|
|--------------------------------------------------------|
|---------------------------3----------------------------|
|--------------------------------------------------------|
 And although we knew this time would come for me and you

|--------------------------|----------------------------2|
|--------------------------|-----------------------------|
|2-------------------------|-----------------------------|
|--------------------------|3----------------------------|
|--------------------------|-----------------------------|
 Don't say anything tonight If you're gonna say goodbye

|-2----------------------2-|
|------2-------------------|
|-----------2-------2------|
|----------------0---------|
|--------------------------|

----------------------------------------------------------------------------

Song Ten: Whispers in the Dark

Tuning: 5-String Normal or, B,E,A,D

Piano first, the Bass comes in

Intro
G|----------------------|
D|----------------------|
A|----------------------|
E|----------------------|
B|-0-000000-00-0-000000-|


Verse
G|-------------|
D|-------------|
A|-------------|X8
E|-------------|
B|-000-00-2222-|

Pre-chorus
G|-----------------------|
D|-----------------------|
A|-----------------------|
E|-----------------------|
B|-00000-2222------------|   

Chorus 
G|---------------------------------------------|
D|---------------------------------------------|
A|---------------------------------------------|X2
E|----3--0000000000000000----------------------|
B|-0----------------------22222222-33333333----|

Post chorus
G|----------------------|
D|----------------------|
A|----------------------|
E|----------------------|
B|-0-000000-00-0-000000-|

Verse
G|-------------|
D|-------------|
A|-------------|X8
E|-------------|
B|-000-00-2222-|

Pre-chorus
G|-----------------------|
D|-----------------------|
A|-----------------------|
E|-----------------------|
B|-00000-2222------------|   

Chorus 
G|---------------------------------------------|
D|---------------------------------------------|
A|---------------------------------------------|X2
E|----3--0000000000000000----------------------|
B|-0----------------------22222222-33333333----|

Guitar Solo     
G|--------------------------------|
D|--------------------------------|
A|-33333333-55555555--------------|
E|--------------------------------|
B|----------------------0-0-0-0-0-|

G|---------------------------------|
D|---------------------------------|
A|-333333333-5---------------------|
E|---------------------------------|
B|---------------------------------|

Post-solo
G|----------------------|
D|----------------------|
A|----------------------|
E|----------------------|
B|-0-000000-00-0-000000-|

Chorus 
G|---------------------------------------------|
D|---------------------------------------------|
A|---------------------------------------------|X2
E|----3--0000000000000000----------------------|
B|-0----------------------22222222-33333333----|

Short Pause

Outro
G|------------------------------------------|
D|------------------------------------------|
A|------------------------------------------|
E|---------00000000-2222222222222222--------|
B|-00000000-------------------------000-000-|

----------------------------------------------------------------------------

Song Eleven: Looking For Angels

Tuning: Five String, or tune down to B,E,A,D

Intro
G|---------------------------------------------------------------------|
D|---------------------------------------------------------------------|
A|---------------------------------------------------------------------|X2
E|---------------------------------------------------------------------|
B|-0-0-0-xxxx-0-0--7-7-7-xxxx-7-7--9-9-9-xxxx-9-9--12-12-12-xxxx-12-12-| 

Verse (no bass)

Chorus
G|---------------------------------------------------------------------|
D|---------------------------------------------------------------------|
A|---------------------------------------------------------------------|X2
E|---------------------------------------------------------------------|X2
B|-0-0-0-xxxx-0-0--7-7-7-xxxx-7-7--9-9-9-xxxx-9-9--12-12-12-xxxx-12-12-|

Post-Chorus
G|-----|
D|-----|
A|-----|
E|-----|
B|-5~~~|

Verse (no bass)

Chorus
G|---------------------------------------------------------------------|
D|---------------------------------------------------------------------|
A|---------------------------------------------------------------------|X2
E|---------------------------------------------------------------------|X2
B|-0-0-0-xxxx-0-0--7-7-7-xxxx-7-7--9-9-9-xxxx-9-9--12-12-12-xxxx-12-12-|

Post-Chorus
G|-------------------------|
D|-------------------------|
A|-------------------------|
E|-------------------------|
B|-5~~~~~~~7~~~~9~~~~12~~~~|

Bridge
G|-----------------------------------------------------------------|
D|-----------------------------------------------------------------|
A|-----------------------------------------------------------------|
E|-----------------------------------------------------------------|
B|-0-0-0-0-0-0-0-0-0-0-0-0-0-0-0-0-3-3-3-3-3-3-3-3-3-3-3-3-3-3-3-3-|

G|-----------------------------------------------------------------|
D|-----------------------------------------------------------------|
A|-----------------------------------------------------------------|
E|-----------------------------------------------------------------|
B|-5-5-5-5-5-5-5-5-5-5-5-5-5-5-5-5-7-7-7-7-7-7-7-7-7-7-7-7-7-7-7-7-|

G|---------------------------------------------------------------------|
D|---------------------------------------------------------------------|
A|---------------------------------------------------------------------|X2
E|---------------------------------------------------------------------|X2
B|-0-0-0-xxxx-0-0--7-7-7-xxxx-7-7--9-9-9-xxxx-9-9--12-12-12-xxxx-12-12-|

Chorus
G|---------------------------------------------------------------------|
D|---------------------------------------------------------------------|
A|---------------------------------------------------------------------|X5
E|---------------------------------------------------------------------|
B|-0-0-0-xxxx-0-0--7-7-7-xxxx-7-7--9-9-9-xxxx-9-9--12-12-12-xxxx-12-12-|
 

----------------------------------------------------------------------------

Song Twelve:  Live Free or Let Me Die (Deluxe Version Only)

G|-----------|--------------------------------------|
D|-----------|--------------------------------------|
A|-----------|--------------------------------------|
E|-----------|----------------------------10p9-12p9-|
B|-7~~~~~~~~~|-0-0-12-0-12p10-0-0-0-0-0-0-----------|

|--------------------------------|--------------------------------------|
|--------------------------------|--------------------------------------|
|--------------------------------|--------------------------------------|
|--------------------------------|----------------------------10p9-10p9-|
|-0-0-12-0-12p10-0-0-0-0-0-0---3~|-0-0-12-0-12p10-0-0-0-0-0-0-----------|

|---------------------|
|---------------------|
|---------------------|
|---------------------|
|-8-8-8-8/10-10-10-10-|

Short Pause

|----------------------------|---------------------|
|----------------------------|---------------------|
|----------------------------|---------------------|
|----------------------------|---------------------|
|-000-00-00--------000-00-00-|-8-8-8-8/10-10-10-10-|

|----------------------------|---------------------|
|----------------------------|---------------------|
|----------------------------|---------------------|
|----------------------------|---------------------|
|-000-00-00--------000-00-00-|-8-8-8-8/10-10-10-10-|

|----------------------------------------------------|
|----------------------------------------------------|
|---------10-----10-------10---------7-----7-------7-|
|----------------------------------------------------|
|-8-8-8-8----8-8----8-8-8----5-5-5-5---5-5---5-5-5---|

|------------------|------------------|------------------|
|------------------|------------------|------------------|
|------------------|------------------|------------------|
|-----5/7\5--------|-----5/7\5--------|-----5/7\5--------|
|-0-0-------5-xx-3-|-0-0-------5-xx-3-|-0-0-------5-xx-3-|

|---------------------|------------------|------------------|
|---------------------|------------------|------------------|
|---------------------|------------------|------------------|
|---------------------|-----5/7\5--------|-----5/7\5--------|
|-8-8-8-8/10-10-10-10-|-0-0-------5-xx-3-|-0-0-------5-xx-3-|

|------------------|------------|
|------------------|------------|
|------------------|------------|
|-----5/7\5--------|------------|
|-0-0-------5-xx-3-|-8-8-8-8-10-|

|--------------------------------------|---------------------------------|
|--------------------------------------|---------------------------------|
|--------------------------------------|---------------------------------|
|----------------------------10p9-12p9-|---------------------------------|
|-0-0-12-0-12p10-0-0-0-0-0-0-----------|-0-0-12-0-12p10-0-0-0-0-0-0-5/10-|

|----------------------------|---------------------|
|----------------------------|---------------------|
|----------------------------|---------------------|
|----------------------------|---------------------|
|-000-00-00--------000-00-00-|-8-8-8-8/10-10-10-10-|

|----------------------------|---------------------|
|----------------------------|---------------------|
|----------------------------|---------------------|
|----------------------------|---------------------|
|-000-00-00--------000-00-00-|-8-8-8-8/10-10-10-10-|

|-----------------------------------------------------|
|-----------------------------------------------------|
|---------10-----10-------10---------7-----7----------|
|-----------------------------------------------------|
|-8-8-8-8----8-8----8-8-8----5-5-5-5---5-5---5-5-5-5\-|

|------------------|------------------|------------------|
|------------------|------------------|------------------|
|------------------|------------------|------------------|
|-----5/7\5--------|-----5/7\5--------|-----5/7\5--------|
|-0-0-------5-xx-3-|-0-0-------5-xx-3-|-0-0-------5-xx-3-|

|---------------------|------------------|------------------|
|---------------------|------------------|------------------|
|---------------------|------------------|------------------|
|---------------------|-----5/7\5--------|-----5/7\5--------|
|-8-8-8-8/10-10-10-10-|-0-0-------5-xx-3-|-0-0-------5-xx-3-|

|------------------|------------|
|------------------|------------|
|------------------|------------|
|-----5/7\5--------|------------|
|-0-0-------5-xx-3-|-8-8-8-8-10-|

|---------------------------------------|
|---------------------------------------|
|---------------------------------------|
|---------------------------------------|
|-8-8-8-8--8-8-8-8--8p7--0-0-0-0--0-0-3-|

|---------------------------------------|
|---------------------------------------|
|---------------------------------------|
|---------------------------------------|
|-8-8-8-8--8-8-8-8--8p7--0-0-0-0--0-0-3-|

|-------------------------------------------|
|-------------------------------------------|
|---------10-----10-------10----------------|
|-------------------------------------------|
|-8-8-8-8----8-8----8-8-8----5-5-5-5-xxxx-5~|

Short Pause

|-----------------------------------------|
|-----------------------------------------|
|-----------------------------------------|
|-----------------------------------------|
|-8-8-8-8-8-8-8-8/10-10-10-10-10-10-10-10-|

|------------------|------------------|------------------|
|------------------|------------------|------------------|
|------------------|------------------|------------------|
|-----5/7\5--------|-----5/7\5--------|-----5/7\5--------|
|-0-0-------5-xx-3-|-0-0-------5-xx-3-|-0-0-------5-xx-3-|

|---------------------|------------------|------------------|
|---------------------|------------------|------------------|
|---------------------|------------------|------------------|
|---------------------|-----5/7\5--------|-----5/7\5--------|
|-8-8-8-8/10-10-10-10-|-0-0-------5-xx-3-|-0-0-------5-xx-3-|

                                                           x3
|------------------| |------------------------------------| |
|------------------|o|------------------------------------|o|
|------------------| |------------------------------------| |
|-----5/7\5--------|o|------------------------------------|o|
|-0-0-------5-xx-3-| |-8-8-8-8-8-8-8-10-10-10-10-10-10-10-| |

|--------------------------------------|------------------------------|
|--------------------------------------|------------------------------|
|--------------------------------------|------------------------------|
|----------------------------10p9-12p9-|------------------------------|
|-0-0-12-0-12p10-0-0-0-0-0-0-----------|-0-0-12-0-12p10-0-0-0-0-0-0-8-|

|--------------------------------------|---------------------|
|--------------------------------------|---------------------|
|--------------------------------------|---------------------|
|----------------------------10p9-12p9-|---------------------|
|-0-0-12-0-12p10-0-0-0-0-0-0-----------|-8-8-8-8/10-10-10-10-|

|----------------------------|-----------------------------------|
|----------------------------|-----------------------------------|
|----------------------------|-----------------------------------|
|----------------------------|-----------------------------------|
|-0-0-12-0-12p10-0-0-0-0-0-0-|-0-0-12-0-12p10-0-0-0-0-0-0----0-0-|

|--------------------------------------|-------------------------|
|--------------------------------------|-------------------------|
|--------------------------------------|-------------------------|
|----------------------------10p9-12p9-|-------------------------|
|-0-0-12-0-12p10-0-0-0-0-0-0-----------|-8-8-8-8/10-10-10-10---0-|

----------------------------------------------------------------------------

Album End
comments
print report bad tab
2 comments total.
+1 reply
daimondbass11 wrote on December 18 2008, 06:57 pm

these tabs are great,
but John uses a 5 string so if you use that you wont need to do those crazy drops on like, Better Than Drugs and others

0 reply
Lemurs4mangos wrote on March 10 2009, 10:20 pm

yeah, I've been meaning to fix all that....

I want to post or [tab]
guest
You may want to rate the tab now too:
select rating
Please do not post tabs as comments. Select "correction" instead!