Oops, an error
Loading. Please wait.

Sick Of It Tab

ver1
ver1

Solo

Whole song

Interactive

More versions @911Tabs.com
12,654 views 72 this week
8 commentsread comments
1 2 3 4 5
worth learning
x 4
Autoscroll
+/-
esc
set tempo
stop
Contributor
Difficulty
Tuning
novice
C G C F A D
WARNING: You are trying to view
                                    content from Ultimate-Guitar.com
                                    in an unauthorized application,
                                    which is prohibited.

                                    Please use an official Ultimate
                                    Guitar Tabs application for iPhone,
                                    iPad or Android to access legitimate
                                    chords, guitar, bass, and drum tabs
                                    from Ultimate-Guitar.com database.

                                    Type "ultimate guitar tabs" in Apple
                                    App Store's or Android Market's
                                    search to find the application.
----------------------------------------------------------------------------
                             Sick of It
                              Skillet
----------------------------------------------------------------------------

I like the irony of this song. I just can’t get sick of it. Enjoy!

Username: dkm817 (same on X box live)
Youtube Cover: http://www.youtube.com/watch?v=X6jeVyskygA
Email: guitardrums@rockfan.com

Guitar 1 Rhythmic (C G C F A D)
Guitar 2 Lead     (C G C F A D)

NOTE: This was exported off of guitar pro.

Guitar 1

      PM     PM  PM  PM     PM  PM     PM     PM  PM  PM  PM  PM  PM  
      E  E   E   E   E  E   E   E      E  E   E   E   E   E   E   E   
D||--------------------------------|---------------------------------|
A||--------------------------------|---------------------------------|
F||--------------------------------|-------------15------12------10--|
C||--12-----12--10--12-----12--10--|--12-----12------12------12------|
G||--------------------------------|---------------------------------|
C||--------------------------------|---------------------------------|


   PM     PM  PM  PM     PM  PM     PM     PM  PM              
   E  E   E   E   E  E   E   E      E  E   E   E   Q     Q     
--------------------------------|-----------------------------|
--------------------------------|-----------------11----10----|
--------------------------------|-------------10---x-----x----|
--12-----12--10--12-----12--10--|--12-----12-------8-----7----|
--------------------------------|-----------------------------|
--------------------------------|-----------------------------|


  E  E  E  E  E  E  E  E     E  E  E  E  E  E  E  E   
--------------------------|--------------------------|
--------------------------|--------------------------|
-----------5-----------5--|--------------------------|
--0-----0--5--0-----0--5--|--0-----0--8--0--5--0--3--|
--0-----0--3--0-----0--3--|--0-----0--8--0--5--0--3--|
--0-----0-----0-----0-----|--0-----0--8--0--5--0--3--|


                                                      PM    PM PM PM    PM PM  
  E  E  E  E  E  E  E  E     E  E  E  E  Q    Q       E  E  E  E  E  E  E  E   
--------------------------|------------------------|--------------------------|
--------------------------|------------------------|--------------------------|
-----------5-----------5--|------------------------|-----------5-----------5--|
--0-----0--5--0-----0--5--|--0-----0--3--8----7----|--0-----0--5--0-----0--5--|
--0-----0--3--0-----0--3--|--0-----0--3--8----7----|--0-----0--3--0-----0--3--|
--0-----0-----0-----0-----|--0-----0--3--8----7----|--0-----0-----0-----0-----|


  PM    PM PM PM PM PM PM    PM    PM PM PM    PM PM    PM    PM PM PM   PM    
  E  E  E  E  E  E  E  E     E  E  E  E  E  E  E  E     E  E  E  E  Q    Q     
--------------------------|--------------------------|------------------------|
--------------------------|--------------------------|------------------------|
--------------------------|-----------5-----------5--|------------------------|
--0-----0--8--0--5--0--3--|--0-----0--5--0-----0--5--|--0-----0--3--8----7----|
--0-----0--8--0--5--0--3--|--0-----0--3--0-----0--3--|--0-----0--3--8----7----|
--0-----0--8--0--5--0--3--|--0-----0-----0-----0-----|--0-----0--3--8----7----|


  E  E  E  E  E  E  E  E     E  E  E  E  E  E  E  E   
--------------------------|--------------------------|
--------------------------|--------------------------|
-----------5-----------5--|--------------------------|
--0-----0--5--0-----0--5--|--0-----0--8--0--5--0--3--|
--0-----0--3--0-----0--3--|--0-----0--8--0--5--0--3--|
--0-----0-----0-----0-----|--0-----0--8--0--5--0--3--|


                                                      ^                 
  E  E  E  E  E  E  E  E     E  E  E  E  Q    Q       W                 
--------------------------|------------------------|--1----------------|
--------------------------|------------------------|--1----------------|
-----------5-----------5--|------------------------|--3----------------|
--0-----0--5--0-----0--5--|--0-----0--3--8----7----|--3----------------|
--0-----0--3--0-----0--3--|--0-----0--3--8----7----|--1----------------|
--0-----0-----0-----0-----|--0-----0--3--8----7----|-------------------|


           ^           ^                                               
  H        H           W                    E   E   E   E   Q    Q     
--L--------1--------|--5----------------|-----------------------------|
--L--------1--------|--6----------------|--10--10--10--10--13---------|
--L--------3--------|--7----------------|---x---x---x---x---x----8----|
--L--------3--------|--7----------------|---7---7---7---7--10----x----|
--L--------1--------|--5----------------|------------------------6----|
--------------------|-------------------|-----------------------------|


  E  E  E  E  E  E  E  E     E  E  E  E  E  E  E  E   
--------------------------|--------------------------|
--------------------------|--------------------------|
--------------------------|--------------5--5--5--5--|
--0--0--0--0--8--8--8--8--|--3--3--3--3--5--5--5--5--|
--0--0--0--0--8--8--8--8--|--3--3--3--3--3--3--3--3--|
--0--0--0--0--8--8--8--8--|--3--3--3--3--------------|


  E  E  E  E  E  E  E  E     E  E  E  E  E  E  E  E   
--------------------------|--------------------------|
--------------------------|--------------------------|
--------------------------|--------------5--5--------|
--0--0--0--0--8--8--8--8--|--3--3--3--3--5--5--------|
--0--0--0--0--8--8--8--8--|--3--3--3--3--3--3--------|
--0--0--0--0--8--8--8--8--|--3--3--3--3--------5--3--|


  E  E  E  E  E  E  E  E     E  E  E  E  E  E  E  E   
--------------------------|--------------------------|
--------------------------|--------------------------|
--------------------------|--------------5--5--5--5--|
--0--0--0--0--8--8--8--8--|--3--3--3--3--5--5--5--5--|
--0--0--0--0--8--8--8--8--|--3--3--3--3--3--3--3--3--|
--0--0--0--0--8--8--8--8--|--3--3--3--3--------------|


  E  E  E  E  E  E  E  E     E  E  E  E  Q    Q       E  E  E  E  E  E  E  E   
--------------------------|------------------------|--------------------------|
--------------------------|------------------------|--------------------------|
--------------------------|--------------5---------|-----------5-----------5--|
--8--8--8--8--8--8--8--8--|--7--7--7--5--5----1----|--0-----0--5--0-----0--5--|
--8--8--8--8--8--8--8--8--|--7--7--7--5--3----1----|--0-----0--3--0-----0--3--|
--8--8--8--8--8--8--8--8--|--7--7--7--5-------1----|--0-----0-----0-----0-----|


  E  E  E  E  E  E  E  E     E  E  E  E  E  E  E  E     E  E  E  E  Q    Q     
--------------------------|--------------------------|------------------------|
--------------------------|--------------------------|------------------------|
--------------------------|-----------5-----------5--|------------------------|
--0-----0--8--0--5--0--3--|--0-----0--5--0-----0--5--|--0-----0--3--8----7----|
--0-----0--8--0--5--0--3--|--0-----0--3--0-----0--3--|--0-----0--3--8----7----|
--0-----0--8--0--5--0--3--|--0-----0-----0-----0-----|--0-----0--3--8----7----|


  PM PM PM PM PM    PM PM PM PM       PM PM PM PM    PM PM PM PM  
  E  E  S  S  E  E  E  S  S  E     E  E  S  S  E  E  E  S  S  E   
--------------------------------|--------------------------------|
--------------------------------|--------------------------------|
--------------------------------|--------------------------------|
--0--0--0--0--0-----0--0--0--0--|-----0--0--0--0-----0--0--0--0--|
--0--0--0--0--0-----0--0--0--0--|-----0--0--0--0-----0--0--0--0--|
--0--0--0--0--0-----0--0--0--0--|-----0--0--0--0-----0--0--0--0--|


  PM PM PM PM PM    PM PM PM PM       PM PM PM PM              
  E  E  S  S  E  E  E  S  S  E     E  E  S  S  E  E  E  E  E   
--------------------------------|-----------------------------|
--------------------------------|-----------------------------|
--------------------------------|-----------------------------|
--0--0--0--0--0-----0--0--0--0--|-----0--0--0--0--------------|
--0--0--0--0--0-----0--0--0--0--|-----0--0--0--0--------------|
--0--0--0--0--0-----0--0--0--0--|-----0--0--0--0-----5--0--3--|


  PM PM PM PM PM    PM PM PM PM    PM PM PM PM PM PM            
  E  E  S  S  E  E  E  S  S  E     S  S  E  S  S  E  Q    Q     
--------------------------------|------------------------------|
--------------------------------|------------------------------|
--------------------------------|------------------------------|
--0--0--0--0--0-----0--0--0--0--|--0--0--0--0--0--0--8----7----|
--0--0--0--0--0-----0--0--0--0--|--0--0--0--0--0--0--8----7----|
--0--0--0--0--0-----0--0--0--0--|--0--0--0--0--0--0--8----7----|


  E  E  E  E  E  E  E  E     E  E  E  E  E  E  E  E   
--------------------------|--------------------------|
--------------------------|--------------------------|
-----------5-----------5--|--------------------------|
--0-----0--5--0-----0--5--|--0-----0--8--0--5--0--3--|
--0-----0--3--0-----0--3--|--0-----0--8--0--5--0--3--|
--0-----0-----0-----0-----|--0-----0--8--0--5--0--3--|


                                                      ^                 
  E  E  E  E  E  E  E  E     E  E  E  E  Q    Q       W                 
--------------------------|------------------------|--1----------------|
--------------------------|------------------------|--1----------------|
-----------5-----------5--|------------------------|--3----------------|
--0-----0--5--0-----0--5--|--0-----0--3--8----7----|--3----------------|
--0-----0--3--0-----0--3--|--0-----0--3--8----7----|--1----------------|
--0-----0-----0-----0-----|--0-----0--3--8----7----|-------------------|


           ^           ^                                               
  H        H           W                    E   E   E   E   Q    Q     
--L--------1--------|--5----------------|-----------------------------|
--L--------1--------|--6----------------|--10--10--10--10--13---------|
--L--------3--------|--7----------------|---x---x---x---x---x----8----|
--L--------3--------|--7----------------|---7---7---7---7--10----x----|
--L--------1--------|--5----------------|------------------------6----|
--------------------|-------------------|-----------------------------|


  E  E  E  E  E  E  E  E     E  E  E  E  E  E  E  E   
--------------------------|--------------------------|
--------------------------|--------------------------|
--------------------------|--------------5--5--5--5--|
--0--0--0--0--8--8--8--8--|--3--3--3--3--5--5--5--5--|
--0--0--0--0--8--8--8--8--|--3--3--3--3--3--3--3--3--|
--0--0--0--0--8--8--8--8--|--3--3--3--3--------------|


  E  E  E  E  E  E  E  E     E  E  E  E  E  E  E  E   
--------------------------|--------------------------|
--------------------------|--------------------------|
--------------------------|--------------5--5--------|
--0--0--0--0--8--8--8--8--|--3--3--3--3--5--5--------|
--0--0--0--0--8--8--8--8--|--3--3--3--3--3--3--------|
--0--0--0--0--8--8--8--8--|--3--3--3--3--------5--3--|


  E  E  E  E  E  E  E  E     E  E  E  E  E  E  E  E   
--------------------------|--------------------------|
--------------------------|--------------------------|
--------------------------|--------------5--5--5--5--|
--0--0--0--0--8--8--8--8--|--3--3--3--3--5--5--5--5--|
--0--0--0--0--8--8--8--8--|--3--3--3--3--3--3--3--3--|
--0--0--0--0--8--8--8--8--|--3--3--3--3--------------|


  E  E  E  E  E  E  E  E     E  E  E  E  Q    Q       E  E  E  E  E  E  E  E   
--------------------------|------------------------|--------------------------|
--------------------------|------------------------|--------------------------|
--------------------------|--------------5---------|-----------5-----------5--|
--8--8--8--8--8--8--8--8--|--7--7--7--5--5----1----|--0-----0--5--0-----0--5--|
--8--8--8--8--8--8--8--8--|--7--7--7--5--3----1----|--0-----0--3--0-----0--3--|
--8--8--8--8--8--8--8--8--|--7--7--7--5-------1----|--0-----0-----0-----0-----|


  E  E  E  E  E  E  E  E     E  E  E  E  E  E  E  E     E  E  E  E  Q    Q     
--------------------------|--------------------------|------------------------|
--------------------------|--------------------------|------------------------|
--------------------------|-----------5-----------5--|------------------------|
--0-----0--8--0--5--0--3--|--0-----0--5--0-----0--5--|--0-----0--3--8----7----|
--0-----0--8--0--5--0--3--|--0-----0--3--0-----0--3--|--0-----0--3--8----7----|
--0-----0--8--0--5--0--3--|--0-----0-----0-----0-----|--0-----0--3--8----7----|


  E  S  S E  E  H           E  S  S E  E  Q    Q       E  S  S E  E  H         
-------------------------|--------------------------|-------------------------|
-------------------------|--------------------------|-------------------------|
-------------------------|--------------------------|-------------------------|
--0----10-0--0--5--------|--0----10-0--0--8----7----|--0----10-0--0--5--------|
--0----10-0--0--5--------|--0----10-0--0--8----7----|--0----10-0--0--5--------|
--0----10-0--0--5--------|--0----10-0--0--8----7----|--0----10-0--0--5--------|


  E  S  S E  E  Q    Q       E  S  S E  E  H           E  S  S E  E  Q    Q     
--------------------------|-------------------------|--------------------------|
--------------------------|-------------------------|--------------------------|
--------------------------|-------------------------|--------------------------|
--0----10-0--0--8----7----|--0----10-0--0--5--------|--0----10-0--0--8----7----|
--0----10-0--0--8----7----|--0----10-0--0--5--------|--0----10-0--0--8----7----|
--0----10-0--0--8----7----|--0----10-0--0--5--------|--0----10-0--0--8----7----|


  E  S  S E  E  H           Q    E  E  H           H        Q    Q     
-------------------------|----------------------|---------------------|
-------------------------|----------------------|---------------------|
-------------------------|----------------------|---------------------|
--0----10-0--0--5--------|----------------------|--3--------5----7----|
--0----10-0--0--5--------|----------------------|--3--------5----7----|
--0----10-0--0--5--------|--3----5--7--2--------|--3--------5----7----|


  E  E  E  E  E  E  E  E     E  E  E  E  E  E  E  E     E  E  E  E  Q    Q     
--------------------------|--------------------------|------------------------|
--------------------------|--------------------------|------------------------|
--------------------------|-----------5-----------5--|--------------3---------|
--2-----2-----2-----2-----|--0-----0--5--0-----0--5--|--0-----0--3--3----1----|
--2-----2-----2-----2-----|--0-----0--3--0-----0--3--|--0-----0--3--1----1----|
--2-----2-----2-----2-----|--0-----0-----0-----0-----|--0-----0--3-------1----|


                                  E  E  E  E  E  E  E  E   
-------|-------|-------|-------|--------------------------|
-------|-------|-------|-------|--------------------------|
-------|-------|-------|-------|--------------------------|
-------|-------|-------|-------|--0--0--0--0--8--8--8--8--|
-------|-------|-------|-------|--0--0--0--0--8--8--8--8--|
-------|-------|-------|-------|--0--0--0--0--8--8--8--8--|


  E  E  E  E  E  E  E  E     E  E  E  E  E  E  E  E   
--------------------------|--------------------------|
--------------------------|--------------------------|
--------------5--5--5--5--|--------------------------|
--3--3--3--3--5--5--5--5--|--0--0--0--0--8--8--8--8--|
--3--3--3--3--3--3--3--3--|--0--0--0--0--8--8--8--8--|
--3--3--3--3--------------|--0--0--0--0--8--8--8--8--|


  E  E  E  E  E  E  E  E     E  E  E  E  E  E  E  E   
--------------------------|--------------------------|
--------------------------|--------------------------|
--------------5--5--------|--------------------------|
--3--3--3--3--5--5--------|--0--0--0--0--8--8--8--8--|
--3--3--3--3--3--3--------|--0--0--0--0--8--8--8--8--|
--3--3--3--3--------5--3--|--0--0--0--0--8--8--8--8--|


  E  E  E  E  E  E  E  E     E  E  E  E  E  E  E  E   
--------------------------|--------------------------|
--------------------------|--------------------------|
--------------5--5--5--5--|--------------------------|
--3--3--3--3--5--5--5--5--|--0--0--0--0--8--8--8--8--|
--3--3--3--3--3--3--3--3--|--0--0--0--0--8--8--8--8--|
--3--3--3--3--------------|--0--0--0--0--8--8--8--8--|


  E  E  E  E  E  E  E  E     E  E  E  E  E  E  E  E   
--------------------------|--------------------------|
--------------------------|--------------------------|
--------------5--5--5--5--|--------------------------|
--3--3--3--3--5--5--5--5--|--0--0--0--0--8--8--8--8--|
--3--3--3--3--3--3--3--3--|--0--0--0--0--8--8--8--8--|
--3--3--3--3--------------|--0--0--0--0--8--8--8--8--|


  E  E  E  E  E  E  E  E     E  E  E  E  E  E  E  E   
--------------------------|--------------------------|
--------------------------|--------------------------|
--------------5--5--5--5--|--------------------------|
--3--3--3--3--5--5--5--5--|--0--0--0--0--8--8--8--8--|
--3--3--3--3--3--3--3--3--|--0--0--0--0--8--8--8--8--|
--3--3--3--3--------------|--0--0--0--0--8--8--8--8--|


  E  E  E  E  E  E  E  E     E  E  E  E  E  E  E  E   
--------------------------|--------------------------|
--------------------------|--------------------------|
--------------5--5--------|--------------------------|
--3--3--3--3--5--5--------|--0--0--0--0--8--8--8--8--|
--3--3--3--3--3--3--------|--0--0--0--0--8--8--8--8--|
--3--3--3--3--------5--3--|--0--0--0--0--8--8--8--8--|


  E  E  E  E  E  E  E  E     E  E  E  E  E  E  E  E     E  E  E  E   H          
--------------------------|--------------------------|-------------------------|
--------------------------|--------------------------|-------------------------|
--------------5--5--5--5--|--------------------------|--------------15b--------|
--3--3--3--3--5--5--5--5--|--8--8--8--8--8--8--8--8--|--7--7--7--5---x---------|
--3--3--3--3--3--3--3--3--|--8--8--8--8--8--8--8--8--|--7--7--7--5--13b--------|
--3--3--3--3--------------|--8--8--8--8--8--8--8--8--|--7--7--7--5-------------|


  E  S  S E  E  H           E  S  S E  E  Q    Q       E  S  S E  E  H         
-------------------------|--------------------------|-------------------------|
-------------------------|--------------------------|-------------------------|
-------------------------|--------------------------|-------------------------|
--0----10-0--0--5--------|--0----10-0--0--8----7----|--0----10-0--0--5--------|
--0----10-0--0--5--------|--0----10-0--0--8----7----|--0----10-0--0--5--------|
--0----10-0--0--5--------|--0----10-0--0--8----7----|--0----10-0--0--5--------|


  E  S  S E  E  Q    Q       E  E  E  E  E  E  E  E   
--------------------------|--------------------------|
--------------------------|--------------------------|
--------------------------|-----------5-----------5--|
--0----10-0--0--8----7----|--0--0--0--5--0--0--0--5--|
--0----10-0--0--8----7----|--0--0--0--3--0--0--0--3--|
--0----10-0--0--8----7----|--0--0--0-----0--0--0-----|


  E  E  E  E  E  E  E  E     E  E  E  E  E  E  E  E     E  E  E  E  Q    Q     
--------------------------|--------------------------|------------------------|
--------------------------|--------------------------|------------------------|
--------------------------|-----------5-----------5--|------------------------|
--0--0--0--8--0--5--0--3--|--0--0--0--5--0--0--0--5--|--0-----0--3--8----7----|
--0--0--0--8--0--5--0--3--|--0--0--0--3--0--0--0--3--|--0-----0--3--8----7----|
--0--0--0--8--0--5--0--3--|--0--0--0-----0--0--0-----|--0-----0--3--8----7----|


  E  E  Q    Q    Q              
-----------------------|-------||
-----------------------|-------||
-----------------------|-------||
--0--0--0--------------|-------||
--0--0--0--------------|-------||
--0--0--0--------------|-------||


Guitar 2


     E   E  H        Q       W                   E   E  H        Q     
D||-----------------------|-------------------|-----------------------|
A||-----10--L--------L----|--L----------------|-----10--L--------L----|
F||--7---------------L----|--L----------------|--7---------------L----|
C||-----------------------|-------------------|-----------------------|
G||-----------------------|-------------------|-----------------------|
C||-----------------------|-------------------|-----------------------|


   Q     Q    Q    Q       E  E  E  E  E  E  E  E     E  E  E  E  E  E  E  E   
--22--------------------|--------------------------|--------------------------|
------------------------|--------------------------|--------------------------|
--------19--------------|-----------5-----------5--|--------------------------|
--------------0----0----|--0-----0--5--0-----0--5--|--0-----0--8--0--5--0--3--|
------------------------|--0-----0--3--0-----0--3--|--0-----0--8--0--5--0--3--|
------------------------|--0-----0-----0-----0-----|--0-----0--8--0--5--0--3--|


  E  E  E  E  E  E  E  E     E  E  E  E  Q    Q                             
--------------------------|------------------------|-------|-------|-------|
--------------------------|------------------------|-------|-------|-------|
-----------5-----------5--|------------------------|-------|-------|-------|
--0-----0--5--0-----0--5--|--0-----0--3--8----7----|-------|-------|-------|
--0-----0--3--0-----0--3--|--0-----0--3--8----7----|-------|-------|-------|
--0-----0-----0-----0-----|--0-----0--3--8----7----|-------|-------|-------|


   Q     Q    Q    Q       E  E  E  E  E  E  E  E     E  E  E  E  E  E  E  E   
--22--------------------|--------------------------|--------------------------|
------------------------|--------------------------|--------------------------|
--------19--------------|-----------5-----------5--|--------------------------|
------------------------|--0-----0--5--0-----0--5--|--0-----0--8--0--5--0--3--|
------------------------|--0-----0--3--0-----0--3--|--0-----0--8--0--5--0--3--|
------------------------|--0-----0-----0-----0-----|--0-----0--8--0--5--0--3--|


  E  E  E  E  E  E  E  E     E  E  E  E  Q    Q     
--------------------------|------------------------|
--------------------------|------------------------|
-----------5-----------5--|------------------------|
--0-----0--5--0-----0--5--|--0-----0--3--8----7----|
--0-----0--3--0-----0--3--|--0-----0--3--8----7----|
--0-----0-----0-----0-----|--0-----0--3--8----7----|


   Q     E   Q     E   Q        Q     E   Q     E   Q     
--10----10--12----10--13----|--10----10--12----10--13----|
--10------------------------|-----------------------L----|
--10------------------------|-----------------------L----|
----------------------------|----------------------------|
----------------------------|----------------------------|
----------------------------|----------------------------|


   Q     E   Q     E   Q        E   E   E   E  Q    Q     
--10----10--12----10--13----|----------------------------|
--13-------------------L----|--10--10--10--10------------|
--10-------------------L----|---x---x---x---x------------|
----------------------------|---7---7---7---7------------|
----------------------------|----------------------------|
----------------------------|----------------------------|


  E  E  E  E  E  E  E  E     E  E  E  E  E  E  E  E   
--------------------------|--------------------------|
--------------------------|--------------------------|
--------------------------|--------------5--5--5--5--|
--0--0--0--0--8--8--8--8--|--3--3--3--3--5--5--5--5--|
--0--0--0--0--8--8--8--8--|--3--3--3--3--3--3--3--3--|
--0--0--0--0--8--8--8--8--|--3--3--3--3--------------|


  E  E  E  E  E  E  E  E     E  E  E  E  E  E  E  E   
--------------------------|--------------------------|
--------------------------|--------------------------|
--------------------------|--------------5--5--------|
--0--0--0--0--8--8--8--8--|--3--3--3--3--5--5--------|
--0--0--0--0--8--8--8--8--|--3--3--3--3--3--3--------|
--0--0--0--0--8--8--8--8--|--3--3--3--3--------5--3--|


  E  E  E  E  E  E  E  E     E  E  E  E  E  E  E  E   
--------------------------|--------------------------|
--------------------------|--------------------------|
--------------------------|--------------5--5--5--5--|
--0--0--0--0--8--8--8--8--|--3--3--3--3--5--5--5--5--|
--0--0--0--0--8--8--8--8--|--3--3--3--3--3--3--3--3--|
--0--0--0--0--8--8--8--8--|--3--3--3--3--------------|


  E  E  E  E  E  E  E  E     E  E  E  E  Q    Q       E  E  E  E  E  E  E  E   
--------------------------|------------------------|--------------------------|
--------------------------|------------------------|--------------------------|
--------------------------|--------------5---------|-----------5-----------5--|
--8--8--8--8--8--8--8--8--|--7--7--7--5--5----1----|--0-----0--5--0-----0--5--|
--8--8--8--8--8--8--8--8--|--7--7--7--5--3----1----|--0-----0--3--0-----0--3--|
--8--8--8--8--8--8--8--8--|--7--7--7--5-------1----|--0-----0-----0-----0-----|


  E  E  E  E  E  E  E  E     E  E  E  E  E  E  E  E     E  E  E  E  Q    Q     
--------------------------|--------------------------|------------------------|
--------------------------|--------------------------|------------------------|
--------------------------|-----------5-----------5--|------------------------|
--0-----0--8--0--5--0--3--|--0-----0--5--0-----0--5--|--0-----0--3--8----7----|
--0-----0--8--0--5--0--3--|--0-----0--3--0-----0--3--|--0-----0--3--8----7----|
--0-----0--8--0--5--0--3--|--0-----0-----0-----0-----|--0-----0--3--8----7----|


  S S  S  S S S  S  S S S  S  S S S  S  S  
------------------------------------------|
------20-18-------------------------------|
----------------17-19-----15-14-----------|
--0-0-------0-0-------0-0-------0-0-15-17-|
------------------------------------------|
------------------------------------------|


  S S  S  S S S  S  S S S  S  S S S  S  S     E  E   E   E   E  E   E   E   
------------------------------------------|--------------------------------|
------20-18-------------------------------|--------------------------------|
----------------17-19-----15-14-----------|--------------------------------|
--0-0-------0-0-------0-0-------0-0-10-12-|--12-----12--10--12-----12--10--|
------------------------------------------|--------------------------------|
------------------------------------------|--------------------------------|


   E  E   E   E   E   E   E   E      E  E   E   E   E  E   E   E   
---------------------------------|--------------------------------|
---------------------------------|--------------------------------|
-------------15------12------10--|--------------------------------|
--12-----12------12------12------|--12-----12--10--12-----12--10--|
---------------------------------|--------------------------------|
---------------------------------|--------------------------------|


   E  E   E   E   Q     Q        E  E   E   E   E  E   E   E   
-----------------------------|--------------------------------|
-----------------11----10----|--------------------------------|
-------------10--------------|--------------------------------|
--12-----12------------------|--12-----12--10--12-----12--10--|
-----------------------------|--------------------------------|
-----------------------------|--------------------------------|


   E  E   E   E   E   E   E   E      E  E   E   E   E  E   E   E   
---------------------------------|--------------------------------|
---------------------------------|--------------------------------|
-------------15------12------10--|--------------------------------|
--12-----12------12------12------|--12-----12--10--12-----12--10--|
---------------------------------|--------------------------------|
---------------------------------|--------------------------------|


   E  E   E   E   Q     Q        Q     E   Q     E   Q     
-----------------------------|--10----10--12----10--13----|
-----------------11----10----|--10------------------------|
-------------10--------------|--10------------------------|
--12-----12------------------|----------------------------|
-----------------------------|----------------------------|
-----------------------------|----------------------------|


   Q     E   Q     E   Q        Q     E   Q     E   Q     
--10----10--12----10--13----|--10----10--12----10--13----|
-----------------------L----|--13-------------------L----|
-----------------------L----|--10-------------------L----|
----------------------------|----------------------------|
----------------------------|----------------------------|
----------------------------|----------------------------|


   E   E   E   E  Q    Q       E  E  E  E  E  E  E  E   
----------------------------|--------------------------|
--10--10--10--10------------|--------------------------|
---x---x---x---x------------|--------------------------|
---7---7---7---7------------|--0--0--0--0--8--8--8--8--|
----------------------------|--0--0--0--0--8--8--8--8--|
----------------------------|--0--0--0--0--8--8--8--8--|


  E  E  E  E  E  E  E  E     E  E  E  E  E  E  E  E   
--------------------------|--------------------------|
--------------------------|--------------------------|
--------------5--5--5--5--|--------------------------|
--3--3--3--3--5--5--5--5--|--0--0--0--0--8--8--8--8--|
--3--3--3--3--3--3--3--3--|--0--0--0--0--8--8--8--8--|
--3--3--3--3--------------|--0--0--0--0--8--8--8--8--|


  E  E  E  E  E  E  E  E     E  E  E  E  E  E  E  E   
--------------------------|--------------------------|
--------------------------|--------------------------|
--------------5--5--------|--------------------------|
--3--3--3--3--5--5--------|--0--0--0--0--8--8--8--8--|
--3--3--3--3--3--3--------|--0--0--0--0--8--8--8--8--|
--3--3--3--3--------5--3--|--0--0--0--0--8--8--8--8--|


  E  E  E  E  E  E  E  E     E  E  E  E  E  E  E  E     E  E  E  E  Q    Q     
--------------------------|--------------------------|------------------------|
--------------------------|--------------------------|------------------------|
--------------5--5--5--5--|--------------------------|--------------5---------|
--3--3--3--3--5--5--5--5--|--8--8--8--8--8--8--8--8--|--7--7--7--5--5----1----|
--3--3--3--3--3--3--3--3--|--8--8--8--8--8--8--8--8--|--7--7--7--5--3----1----|
--3--3--3--3--------------|--8--8--8--8--8--8--8--8--|--7--7--7--5-------1----|


  E  E  E  E  E  E  E  E     E  E  E  E  E  E  E  E   
--------------------------|--------------------------|
--------------------------|--------------------------|
-----------5-----------5--|--------------------------|
--0-----0--5--0-----0--5--|--0-----0--8--0--5--0--3--|
--0-----0--3--0-----0--3--|--0-----0--8--0--5--0--3--|
--0-----0-----0-----0-----|--0-----0--8--0--5--0--3--|


  E  E  E  E  E  E  E  E     E  E  E  E  Q    Q       E  S  S E  E   H         
--------------------------|------------------------|----------------15--------|
--------------------------|------------------------|--------------------------|
-----------5-----------5--|------------------------|--------------------------|
--0-----0--5--0-----0--5--|--0-----0--3--8----7----|--0----10-0--0------------|
--0-----0--3--0-----0--3--|--0-----0--3--8----7----|--0----10-0--0------------|
--0-----0-----0-----0-----|--0-----0--3--8----7----|--0----10-0--0------------|


  E  S  S E  E   Q     Q       E  S  S E  E   H         
----------------18----17----|----------------15--------|
----------------------------|--------------------------|
----------------------------|--------------------------|
--0----10-0--0--------------|--0----10-0--0------------|
--0----10-0--0--------------|--0----10-0--0------------|
--0----10-0--0--------------|--0----10-0--0------------|


  E  S  S E  E   Q     Q       E  S  S E  E   H         
----------------18----17----|----------------15--------|
----------------------------|--------------------------|
----------------------------|--------------------------|
--0----10-0--0--------------|--0----10-0--0------------|
--0----10-0--0--------------|--0----10-0--0------------|
--0----10-0--0--------------|--0----10-0--0------------|


  E  S  S E  E   Q     Q       E  S  S E  E   H           Q    E  E  H         
----------------18----17----|----------------15--------|----------------------|
----------------------------|--------------------------|----------------------|
----------------------------|--------------------------|----------------------|
--0----10-0--0--------------|--0----10-0--0------------|----------------------|
--0----10-0--0--------------|--0----10-0--0------------|----------------------|
--0----10-0--0--------------|--0----10-0--0------------|--3----5--7--2--------|


  H        Q    Q       E  E  E  E  E  E  E  E     E  E  E  E  E  E  E  E   
---------------------|--------------------------|--------------------------|
---------------------|--------------------------|--------------------------|
---------------------|--------------------------|-----------5-----------5--|
--3--------5----7----|--2-----2-----2-----2-----|--0-----0--5--0-----0--5--|
--3--------5----7----|--2-----2-----2-----2-----|--0-----0--3--0-----0--3--|
--3--------5----7----|--2-----2-----2-----2-----|--0-----0-----0-----0-----|


  E  E  E  E  Q    Q        E   E   E   E   E   E   E   E   
------------------------|----------10--------------10------|
------------------------|----------------------------------|
--------------3---------|------10------10------10------10--|
--0-----0--3--3----1----|--12--------------12--------------|
--0-----0--3--1----1----|----------------------------------|
--0-----0--3-------1----|----------------------------------|


   E   E   E   E   E   E   Q        E   E   E   E   E   E   E   E   
--------------------------------|----------10--------------10------|
--10------10--11----------------|----------------------------------|
------10----------12------12----|------10------10------10------10--|
----------------------10--------|--12--------------12--------------|
--------------------------------|----------------------------------|
--------------------------------|----------------------------------|


   E   E   E   E   Q    Q       E  E  E  E  E  E  E  E   
-----------------------------|--------------------------|
--10------10--11-------------|--------------------------|
------10----------12---------|--------------------------|
-----------------------------|--0--0--0--0--8--8--8--8--|
-----------------------------|--0--0--0--0--8--8--8--8--|
-----------------------------|--0--0--0--0--8--8--8--8--|


  E  E  E  E  E  E  E  E     E  E  E  E  E  E  E  E   
--------------------------|--------------------------|
--------------------------|--------------------------|
--------------5--5--5--5--|--------------------------|
--3--3--3--3--5--5--5--5--|--0--0--0--0--8--8--8--8--|
--3--3--3--3--3--3--3--3--|--0--0--0--0--8--8--8--8--|
--3--3--3--3--------------|--0--0--0--0--8--8--8--8--|


  E  E  E  E  E  E  E  E     E  E  E  E  E  E  E  E   
--------------------------|--------------------------|
--------------------------|--------------------------|
--------------5--5--------|--------------------------|
--3--3--3--3--5--5--------|--0--0--0--0--8--8--8--8--|
--3--3--3--3--3--3--------|--0--0--0--0--8--8--8--8--|
--3--3--3--3--------5--3--|--0--0--0--0--8--8--8--8--|


  E  E  E  E  E  E  E  E     E  E  E  E  E  E  E  E   
--------------------------|--------------------------|
--------------------------|--------------------------|
--------------5--5--5--5--|--------------------------|
--3--3--3--3--5--5--5--5--|--0--0--0--0--8--8--8--8--|
--3--3--3--3--3--3--3--3--|--0--0--0--0--8--8--8--8--|
--3--3--3--3--------------|--0--0--0--0--8--8--8--8--|


   Pickslide                                                                    
   T         T  T  T  T  T  T  T  T  T  T  T  T  T  T  T  T  T T T T T T T T T T
--27--------26-25-24-23-22-21-20-19-18-17-16-15-14-13-12-11-10-9-8-7-6-5-4-3-2-1
--------------------------------------------------------------------------------
--------------------------------------------------------------------------------
--------------------------------------------------------------------------------
--------------------------------------------------------------------------------
--------------------------------------------------------------------------------


   W                    Q    E   E    H            W                 
--------------------|--------------------------|--------------------|
--18----------------|--18----L--18b--17--------|--18----------------|
--------------------|--------------------------|--------------------|
--------------------|--------------------------|--------------------|
--------------------|--------------------------|--------------------|
--------------------|--------------------------|--------------------|


   Q    E   E    H            W                    Q    E   E    H         
--------------------------|--------------------|--------------------------|
--18----L--18b--17--------|--18----------------|--18----L--18b--17--------|
--------------------------|--------------------|--------------------------|
--------------------------|--------------------|--------------------------|
--------------------------|--------------------|--------------------------|
--------------------------|--------------------|--------------------------|


   W                    E   E   E   E   H            E  S  S E  E   H         
--------------------|-----------------------------|----------------15--------|
--18----------------|-----------------------------|--------------------------|
--------------------|--14--14--14--12--15b--------|--------------------------|
--------------------|-------------------x---------|--0----10-0--0------------|
--------------------|------------------13b--------|--0----10-0--0------------|
--------------------|-----------------------------|--0----10-0--0------------|


  E  S  S E  E   Q     Q       E  S  S E  E   H         
----------------18----17----|----------------15--------|
----------------------------|--------------------------|
----------------------------|--------------------------|
--0----10-0--0--------------|--0----10-0--0------------|
--0----10-0--0--------------|--0----10-0--0------------|
--0----10-0--0--------------|--0----10-0--0------------|


  E  S  S E  E   Q     Q       E  E  E  E  E  E  E  E   
----------------18----17----|--------------------------|
----------------------------|--------------------------|
----------------------------|-----------5-----------5--|
--0----10-0--0--------------|--0--0--0--5--0--0--0--5--|
--0----10-0--0--------------|--0--0--0--3--0--0--0--3--|
--0----10-0--0--------------|--0--0--0-----0--0--0-----|


  E  E  E  E  E  E  E  E     E  E  E  E  E  E  E  E     E  E  E  E  Q    Q     
--------------------------|--------------------------|------------------------|
--------------------------|--------------------------|------------------------|
--------------------------|-----------5-----------5--|------------------------|
--0--0--0--8--0--5--0--3--|--0--0--0--5--0--0--0--5--|--0-----0--3--8----7----|
--0--0--0--8--0--5--0--3--|--0--0--0--3--0--0--0--3--|--0-----0--3--8----7----|
--0--0--0--8--0--5--0--3--|--0--0--0-----0--0--0-----|--0-----0--3--8----7----|


  E  E  Q    Q    Q              
-----------------------|-------||
-----------------------|-------||
-----------------------|-------||
--0--0--0--------------|-------||
--0--0--0--------------|-------||
--0--0--0--------------|-------||


Duration Legend
---------------
W - whole
H - half
Q - quarter
E - 8th
S - 16th
T - 32nd
X - 64th
. - note dotted
|-n-|  - n-tuplets


Tablature Legend
----------------
L - tied note
x - dead note
g - grace note
(n) - ghost note
> - accentuded note
NH - natural harmonic
AH - artificial harmonic
TH - tapped harmonic
SH - semi harmonic
PH - pitch harmonic
h - hammer on
p - pull off
b - bend
br - bendRelease
pb - preBend
pbr - preBendRelease
brb - bendReleaseBend
\n/ - tremolo bar dip
\n - tremolo bar dive
-/n - tremolo bar Release up
/n\ - tremolo bar inverted dip
/n - tremolo bar return
-\n - tremolo bar Release down
S - shift slide
s - legato slide
/ -  slide into from below or out of upwards
\ -  slide into from above or out of downwards
~ - vibrato
W - wide vibrato
tr - trill
TP - tremolo picking
T - tapping
S - slap
P - pop
< - fade in
^ - brush up
v - brush down


That is all! I hope this helped, and be sure to check out my cover if you are
having problems with the tab. Thanks, oh and one last thing... ROCK OUT!!!!
comments
print report bad tab
8 comments total. Showing first comments.
+1 reply
ben.raddatz.97 wrote on April 19 2013, 05:18 pm

id want to learn this, but its way too long. i suggest putting things like (x2) (x3) things like that instead of having the same things multiple times.

0 reply
dkm817 wrote on April 19 2013, 06:17 pm

I use to do that when I tabbed out the songs by hand. However, I got too many complaints about other problems so I just switched to tabbing on guitar pro and then exporting it into word format. That is why it is so long.

0 reply
ben.raddatz.97 wrote on April 19 2013, 05:19 pm

E S S E E Q Q E S S E E H
----------------18----17----|----------------15--------|
----------------------------|--------------------------|
----------------------------|--------------------------|
--0----10-0--0--------------|--0----10-0--0------------|
--0----10-0--0--------------|--0----10-0--0------------|
--0----10-0--0--------------|--0----10-0--0------------|

E S S E E Q Q E S S E E H
----------------18----17----|----------------15--------|
----------------------------|--------------------------|
----------------------------|--------------------------|
--0----10-0--0--------------|--0----10-0--0------------|
--0----10-0--0--------------|--0----10-0--0------------|
--0----10-0--0--------------|--0----10-0--0------------|

would be like this:

E S S E E Q Q E S S E E H
----------------18----17----|----------------15--------|
----------------------------|--------------------------|
----------------------------|--------------------------|
--0----10-0--0--------------|--0----10-0--0------------| (x2)
--0----10-0--0--------------|--0----10-0--0------------|
--0----10-0--0--------------|--0----10-0--0------------|

basically easier to read, print and better overall :)

I want to post or [tab]
guest
You may want to rate the tab now too:
select rating
Please do not post tabs as comments. Select "correction" instead!