Oops, an error
Loading. Please wait.

Bangarang Tab

ver3
ver3

Whole song

More versions @911Tabs.com
564 views 21 this week
no commentswrite comment
1 2 3 4 5
please rate
Autoscroll
+/-
esc
set tempo
stop
Contributor
Difficulty
intermediate
WARNING: You are trying to view
                                    content from Ultimate-Guitar.com
                                    in an unauthorized application,
                                    which is prohibited.

                                    Please use an official Ultimate
                                    Guitar Tabs application for iPhone,
                                    iPad or Android to access legitimate
                                    chords, guitar, bass, and drum tabs
                                    from Ultimate-Guitar.com database.

                                    Type "ultimate guitar tabs" in Apple
                                    App Store's or Android Market's
                                    search to find the application.
-------------------------------------------------------------------------------
                             SONG NAME - Band Name
-------------------------------------------------------------------------------
Tabbed by: Michael Capanna      
Email: SpyderPB6@gmail.com

Standard 8 String Tuning

Video example (mistakes included): http://youtu.be/NZrHZcKRl8M

Can be played on a 7 or tuned down 6 easily.

PLEASE login and rate, or comment with constructive criticism.

E|-------------------------------++++++-------------------------------------++++++-----------|*
B|-------------------------------++++++-------------------------------------++++++-----------|2
G|-------------------------------++++++-------------------------------------++++++-----------|T
D|---------------------++-10-8~ -++++++-8-----------------------------10-8~-++++++-----------|I
A|-----10/-----------------------++++++---10-8h10~~  10/--------------------++++++-888-10-10-|M
E|-----10/-----------------------++++++--------------10/--------------------++++++-----------|E
B|-----8-/-----------------------++++++--------------8-/--------------------++++++-----------|S
F#|//------1p0-1p0-1p0-----------++++++------------------1p0-1p0-1p0--------++++++-----------|*
           x x x x x x                                   x x x x x x               xxx x  x

E|-----------------------------------------------------------------------------|*
B|------------------------11-13-17h18p17~------------11----11------------------|2
G|-------------12-1212-12-----------------12-1212-12----12----12~--------------|T
D|-8--------------------------------------------------------------/---/--------|I
A|---10-10~ ------------------------------------------------------/---/--------|M
E|----------------------------------------------------------------/---/--------|E
B|----------------------------------------------------------------/---/--------|S
F#|---------------------------------------------------------------/---/--------|*
                                                           Slide Last Time Only

E|-----------------------------------------------------------------------------|
B|-----------------------------------------------------------------------------|
G|--------------5-5-5--5-5-5---------------------------------------------------|
D|---------------------------\-------------------------------------------------|
A|-10-10--xx10---------------\--10-10---10-------------------------------------|
E|-10-10--xx10---------------\--10-10----------10//----------------------------|
B|-8- 8---xx8----------------\--8--8--8----888---------------------------------|
F#|--------------------------\-------------------------------------------------|
                + + +  + + +

E|-----------------------------------------------------------------------------|
B|-----------------------------------------------------------------------------|
G|--------------5-5-5--5-5-5---------------------------------------------------|
D|---------------------------\-------------------------------------------------|
A|-10-10--xx10---------------\----10----------------10-------------------------|
E|-10-10--xx10---------------\----------8-----------10-------------------------|
B|-8- 8---xx8----------------\--8----88---10--------8--------------------------|
F#|--------------------------\---------------1p0-1p0---------------------------|
                + + +  + + +

E|-----------------------------------------------------------------------------|
B|-----------------------------------------------------------------------------|
G|--------------5-5-5--5-5-5---------------------------------------------------|
D|---------------------------\-------------------------------------------------|
A|-10-10--xx10---------------\--10-10---10-------------------------------------|
E|-10-10--xx10---------------\--10-10----------10//----------------------------|
B|-8- 8---xx8----------------\--8--8--8----888---------------------------------|
F#|--------------------------\-------------------------------------------------|
                + + +  + + +

E|-----------------------------------------------------------------------------|
B|-----------------------------------------------------------------------------|
G|--------------5-5-5--5-5-5---------------------------------------------------|
D|---------------------------\-------------------------------------------------|
A|-10-10--xx10---------------\----10----------------10-------------------------|
E|-10-10--xx10---------------\----------8-----------10-------------------------|
B|-8- 8---xx8----------------\--8----88---10--------8--------------------------|
F#|--------------------------\---------------1p0-1p0---------------------------|
                + + +  + + +
                                
Next Four Rows - Slightly Different
E|-----------------------------------------------------------------------------|
B|-----------------------------------------------------------------------------|
G|--------------55-555-55-5----------------------------------------------------|
D|------------------------------\----------------------------------------------|
A|-10-----10--------------------\--10------8-----------------------------------|
E|-10-----10--------------------\--10------------10//--------------------------|
B|-8- ----8---------------------\--8---------888-------------------------------|
F#|---1p0-----------------------\-----1p0--------------------------------------|
                ++ +++ ++ +       

E|-----------------------------------------------------------------------------|
B|-----------------------------------------------------------------------------|
G|--------------55-555-55-5----------------------------------------------------|
D|------------------------------\----------------------------------------------|
A|-10-----10--------------------\----10----------------10----------------------|
E|-10-----10--------------------\----------8-----------10----------------------|
B|-8- ----8---------------------\--8----88---10--------8-----------------------|
F#|---1p0-----------------------\--------------1p0-1p0-------------------------|
                ++ +++ ++ +

E|-----------------------------------------------------------------------------|
B|-----------------------------------------------------------------------------|
G|--------------55-555-55-5----------------------------------------------------|
D|------------------------------\----------------------------------------------|
A|-10-----10--------------------\--10------8-----------------------------------|
E|-10-----10--------------------\--10------------10//--------------------------|
B|-8- ----8---------------------\--8---------888-------------------------------|
F#|---1p0-----------------------\-----1p0--------------------------------------|
                ++ +++ ++ +

E|-------------------------------------\---------------------------------------|
B|--------------------------------------\--------------------------------------|
G|--------------55-555-55-5--------------\---Big-------------------------------|
D|------------------------------\---------\------------------------------------|
A|-10-----10--------------------\----------\---Slide---------------------------|
E|-10-----10--------------------\-----------\----------------------------------|
B|-8- ----8---------------------\--8~ -------\---------------------------------|
F#|---1p0-----------------------\-------------\--------------------------------|
                ++ +++ ++ +

E|-----------------------------------------------------------------------------|
B|-----------------------------------------------------------------------------|
G|-----------------------------------------------------------------------------|
D|-----------------------------------------------------------------------------|
A|-6-6-666-6-6-6-6-666-6-6---8-8-888-8-8-8-8-888-8-8---------------------------|
E|-6-6-666-6-6-6-6-666-6-6---8-8-888-8-8-8-8-888-8-8---------------------------|
B|-4-4-444-4-4-4-4-444-4-4---6-6-666-6-6-6-6-666-6-6---------------------------|
F#|----------------------------------------------------------------------------|
  

E|-----------------------------------------------------------------------------|
B|-----------------------------------------------------------------------------|
G|-----------------------------------------------------------------------------|
D|-----------------------------------------------------/-----------/-----------|
A|-3-3-333-3-3-3-3-333-3-3---8-8-888-8-8-8-8-888-8-8--/--------8--/------------|
E|-3-3-333-3-3-3-3-333-3-3---8-8-888-8-8-8-8-888-8-8-/---------8-/-------------|
B|-1-1-111-1-1-1-1-111-1-1---6-6-666-6-6-6-6-666-6-6/----------6/--------------|
F#|----------------------------------------------------------------------------|

E|-----------------------------------------------------------------------------|*
B|------------------------11-13-17h18p17~------------11----11------------------|2
G|-------------12-1212-12-----------------12-1212-12----12----12~--------------|T
D|----------------------------------------------------------------/---/--------|I
A|----------------------------------------------------------------/---/--------|M
E|----------------------------------------------------------------/---/--------|E
B|----------------------------------------------------------------/---/--------|S
F#|---------------------------------------------------------------/---/--------|*
                                                           Slide Last Time Only

E|-----------------------------------------------------------------------------|
B|-----------------------------------------------------------------------------|
G|--------------5-5-5--5-5-5---------------------------------------------------|
D|---------------------------\-------------------------------------------------|
A|-10-10--xx10---------------\--10-----10--------------------------------------|
E|-10-10--xx10---------------\--10------------10//-----------------------------|
B|-8- 8---xx8----------------\--8---------888----------------------------------|
F#|--------------------------\-----1p0-----------------------------------------|
                + + +  + + +       


E|-----------------------------------------------------------------------------|
B|-----------------------------------------------------------------------------|
G|--------------5-5-5--5-5-5---------------------------------------------------|
D|---------------------------\-------------------------------------------------|
A|-10-10--xx10---------------\----10----------------10-------------------------|
E|-10-10--xx10---------------\----------8-----------10-------------------------|
B|-8- 8---xx8----------------\--8----88---10--------8--------------------------|
F#|--------------------------\---------------1p0-1p0---------------------------|
                + + +  + + +

E|-----------------------------------------------------------------------------|
B|-----------------------------------------------------------------------------|
G|--------------5-5-5--5-5-5---------------------------------------------------|
D|---------------------------\-------------------------------------------------|
A|-10-10--xx10---------------\--10-----10--------------------------------------|
E|-10-10--xx10---------------\--10------------10//-----------------------------|
B|-8- 8---xx8----------------\--8---------888----------------------------------|
F#|--------------------------\-----1p0-----------------------------------------|
                + + +  + + +       


E|-----------------------------------------------------------------------------|
B|-----------------------------------------------------------------------------|
G|--------------5-5-5--5-5-5---------------------------------------------------|
D|---------------------------\-------------------------------------------------|
A|-10-10--xx10---------------\----10----------------10-------------------------|
E|-10-10--xx10---------------\----------8-----------10-------------------------|
B|-8- 8---xx8----------------\--8----88---10--------8--------------------------|
F#|--------------------------\---------------1p0-1p0---------------------------|
                + + +  + + +

E|-------------------------------++++++-------------------------------------++++++-----------|*
B|-------------------------------++++++-------------------------------------++++++-----------|2
G|-------------------------------++++++-------------------------------------++++++-----------|T
D|---------------------++-10-8~ -++++++-8-----------------------------10-8~-++++++-----------|I
A|-----10/-----------------------++++++---10-8h10~~  10/--------------------++++++-888-10-10-|M
E|-----10/-----------------------++++++--------------10/--------------------++++++-----------|E
B|-----8-/-----------------------++++++--------------8-/--------------------++++++-----------|S
F#|//------1p0-1p0-1p0-----------++++++------------------1p0-1p0-1p0--------++++++-----------|*
           x x x x x x                                   x x x x x x               xxx x  x



| /  slide up
| \  slide down
| h  hammer-on
| p  pull-off
| ~  vibrato
| +  harmonic
| x  Mute note
===============================================================================
comments
We did not receive enough feedback on this tab! Please rate:
1 2 3 4 5
I want to post or [tab]
guest
You may want to rate the tab now too:
select rating
Please do not post tabs as comments. Select "correction" instead!